Oops, an error
Loading. Please wait.

Suicide Song Tab

4 views 3 this week
no commentswrite comment
1 2 3 4 5
3 more votes to show rating
add to favorites
launch autoscroll
font size
0
reset
how to read this tab
guitar tuner
Autoscroll
slow
fast
+/-
esc
set tempo
stop
Help us to improve Ultimate-Guitar.com Take our survey!
×
Author
Difficulty
novice
About this tab version
Song from a S2 episode of Sanity Not Included. Was this info helpful? Yes No
e|---------3-3-3-3-3-2-2-2-3-2-0-0-0-|
B|-4-4-x-x-0-0-0-0-0-3-3-3-3-3-2-2-2-|
G|-4-4-x-x-0-0-0-0-0-2-2-2-2-2-2-2-2-|
D|-4-4-x-x-0-0-0-0-0-0-0-0-0-0-2-2-2-|
A|-2-2-x-x-2-2-2-2-2-----------0-0-0-|
E|---------3-3-3-3-3-----------------|

e|---------------------------------------------------|
B|-10/12-12-12-10------------10-12-14-14b15r14-12-12-|
G|----------------11-9-11-11-------------------------|
D|---------------------------------------------------|
A|---------------------------------------------------|
E|---------------------------------------------------|

e|-------------------------------------14-14b15r14-12-14-12---12----------------------|
B|-15-14-12-15-14-12-15-14-12-15-14-12----------------------15---15-14-15-14-12-12-12-|
G|------------------------------------------------------------------------------------|
D|------------------------------------------------------------------------------------|
A|------------------------------------------------------------------------------------|
E|------------------------------------------------------------------------------------|

e|----------------------10----------10h12-14-14-12-10-10/12-12-12-12-12/14-14-14-17-17h19-17-14-14|
B|-12p10-10h12-12-12-12----12-12-12---------------------------------------------------------------|
G|------------------------------------------------------------------------------------------------|
D|------------------------------------------------------------------------------------------------|
A|------------------------------------------------------------------------------------------------|
E|------------------------------------------------------------------------------------------------|

e|-14-12-14-12----12-------------------------------|
B|-------------15----15-14-15-14-12-14-12-10-10h12-|
G|-------------------------------------------------|
D|-------------------------------------------------|
A|-------------------------------------------------|
E|-------------------------------------------------|


************************************

| x  Dead note
| r  Release
| b  Bend
| /  Slide up
| h  Hammer-on
| p  Pull-off

************************************
Suggest correction
Give kudos to tab author, rate the tab!
1 2 3 4 5
comments
print report bad tab
guest
You may want to rate the tab now too:
select rating
Wanna post a correction for this tab? Suggest correction