Oops, an error
Loading. Please wait.

Para Ti Chords

1 view 1 this week
no commentswrite comment
1 2 3 4 5
3 more votes to show rating
add to favorites
launch autoscroll
font size
0
reset
transpose
0
reset
display chords
guitar tuner
Autoscroll
slow
fast
+/-
esc
set tempo
stop
Help us to improve Ultimate-Guitar.com Take our survey!
×
INTRO

E.-8-7----8-7------8-7-----8-7---------------------
B.-----8-8-----8-10-----8-8-----8-8^7-8^7-8-8^10-8--
G.--------------------------------------------------
D.--------------------------------------------------
A.--------------------------------------------------
E.--------------------------------------------------

E.-8-7------8-7-----8-7-----------------------------
B.-----8-10-----8-8-----8-8^7-8^7-8-8-^10-8---------
G.--------------------------------------------------
D.--------------------------------------------------
A.--------------------------------------------------
E.--------------------------------------------------


G
AUN RECUERDO 
D
TU AUTO VIEJO
C
AQUEL REFUGIO
                 D
DONDE ATABAMOS SUEÃ?OS
G       D         C
VIVIENDO DE FRENTE
                       D
CONTRA DE TODOS Y CONTRACORRIENTE

G
PARA MIS PADRES
D
ERAS UN VAGO
C
LA MALA INFLUENCIA
D
UN PELO EN EL PLATO
G      D         C
UN TEMA PROHIBIDO
                          D
COMO SI EL VERTE FUERA UN GRAN DELITO


CORO

G                        D
SI ALGUNA VEZ PIENSAS EN MI
          C               D
ESTA CANCION LA HICE PARA TI
            G             D
EN DONDE ESTES YO SIGO AQUI
            C                D  G D C D
Y ESTA CANCION LA HICE PARA TI


G                   D
HASTA QUE UN DIA ENTRE SILENCIOS
     C
ME CONFESASTE 
       D
QUE TE IBAS MUY LEJOS
G      D        C
NO HUBO PROMESAS
                 D
NO HUBO ADIOS DE TELENOVELA
G               D
EL TIEMPO PASA, PASA LA GENTE
C
MAS LOS RECUERDOS
D
SON PARA SIEMPRE
G         D         C
NO IMPORTA QUE DUELA
                      D
CIERRO LOS OJOS Y TE SIENTO CERCA

CORO

SI ALGUNA VEZ...


SOLO

E.--------------------------------------------------
B.--------------------------------------------------
G.--------------------------------------------------
D.-3-3-3-2-0---------------3-3-3-2-5-5-5-5-7-7-7-5-5
A.-----------3--------------------------------------
E.-------------3-2-0-2--5---------------------------

G                     D
SI ALGUNA VEZ AL PASO DE LOS AÃ?OS
C
CON LA PUERTA 
       D
DE TUS PENSAMIENTOS
G                   D
JAMAS OLVIDES QUE VOLAMOS LEJOS
C                     D
Y QUE A TU LADO NUNCA TUVE MIEDO

CORO

SI ALGUNA VEZ ...
Suggest correction
Give kudos to tab author, rate the tab!
1 2 3 4 5
comments
print report bad tab
guest
You may want to rate the tab now too:
select rating
Wanna post a correction for this tab? Suggest correction