Oops, an error
Loading. Please wait.

Des Peres Tab

176 views 1 this week
no commentswrite comment
1 2 3 4 5
please rate
add to favorites
launch autoscroll
font size
0
reset
how to read this tab
guitar tuner
Tab Pro tools
  • play this tab
  • loop segment
  • change instrument
  • show fretboard
  • metronome
×
Best way to learn
"Des Peres"
Autoscroll
slow
fast
+/-
esc
set tempo
stop
Contributor
Des Peres  -  The Lyndsay Diaries

Tabbed by: Jade Ethan Houser
Email:a_poetic_retelling_of_an_unfortunate_seduction@hotmail.com

/ = slide up
\ = slide down

Tuning: standard

Intro Tabs and Verse:

e|---------------------------------------------------------------------------|
B|---------------------------------------------------------------------------|
G|---------------------------------------------------------------------------|
D|---------------------------------------------------------------------------|
A|---9-----9-----6-----4-4\7/6---9-9\11/9---9-6\7/6-----6-6\7----------------|
E|-7---7-6---6-4---4-2---------7----------6---------4----------2-------------|



e|---------------------------------------------------------------------------|
B|---------------------------------------------------------------------------|
G|---------------------------------------------------------------------------|
D|---------------------------------------------------------------------------|
A|---9-----9-----6-----4-----9-----9-----6-----4-----9-----9-----6-----4-----|
E|-7---7-6---6-4---4-2---2\7---7-6---6-4---4-2---2\7---7-6---6-4---4-2---2\--|



e|----------------------------------------------|
B|----------------------------------------------|
G|----------------------------------------------|
D|----------------------------------------------|
A|---9-----9-----6-----4-----9-----9-----6------|
E|-7---7-6---6-4---4-2---2/7---7-6---6-4---4-2--|

Chorus:

e|---------------------------------------------------------------------------|
B|---------------------------------------------------------------------------|
G|---------------------------------------------------------------------------|
D|---------------------------------------------------------------------------|
A|-----2-----4-----6-----6-----2-----4-----6-----6-----2-----4---------------|
E|-2-0---0-2---2-4---4-4---4-0---0-2---2-4---4-4---4-0---0-2---2-4/----------|

Verse 2:

e|---------------------------------------------------------------------------|
B|---------------------------------------------------------------------------|
G|---------------------------------------------------------------------------|
D|---------------------------------------------------------------------------|
A|---9\11/9---9-6\7-----6-6\7/6---4-4\7/6---9-9\11/9---9-6\7/6---6-6\7-------|
E|-7--------6---------4---------2---------7----------6---------4-------2-----|



e|---------------------------------------------------------------------------|
B|---------------------------------------------------------------------------|
G|---------------------------------------------------------------------------|
D|---------------------------------------------------------------------------|
A|---9-----9-----6-----4-----9-----9-----6-----4-----9-----9-----6-----4-----|
E|-7---7-6---6-4---4-2---2\7---7-6---6-4---4-2---2/7---7-6---6-4---4-2---2/--|



e|-----------------------------|
B|-----------------------------|
G|-----------------------------|
D|-----------------------------|
A|---9-----9-----6-----4-------|
E|-7---7-6---6-4---4-2---2-----|


*Repeat Chorus*
comments
We did not receive enough feedback on this tab! Please rate:
print report bad tab
1 2 3 4 5
I want to post or [tab]
guest
You may want to rate the tab now too:
select rating
Please do not post tabs as comments. Select "correction" instead!