Oops, an error
Loading. Please wait.

Lady Luck Tab

220 views 1 this week
no commentswrite comment
1 2 3 4 5
please rate
add to favorites
launch autoscroll
font size
0
reset
how to read this tab
guitar tuner
Autoscroll
slow
fast
+/-
esc
set tempo
stop
Help us to improve Ultimate-Guitar.com Take our survey!
×
Author
Capo
2nd fret
Song: Lady Luck
Artist: The Lyndsay Diaries
Tuning: Standard (Capo 2nd fret)
Tabbed by: John

All fingerings relative to capo(2nd fret)
/=slide
h=hammer on
p=pull off

0:00 - 1:01 (play 6x)
E|---------2h3p2*--2-----------0---2-------------------------------------|
B|-----3-------------3-----3---------3-----3-----2h3-5----7---5/2---2----|
G|---2---2-------2-------2-------2-------0-----------0--0---0-----0---0--|
D|-0-------------------------------------------0-------------------------|
A|---------------------4-----4-------------------------------------------|
E|-------------------------------------3-----3-------5-------------------|
*-played 2h3 first 2 times


1:02 - 1:21 (play 1x)
E|-----------------------2h3-0-------------------------3p2-0-------------|
B|-----3-----2-0-----2--------3------3-----2-0-----2--------3------------|
G|---0-------------2---------------0-------------2-----------------------|
D|---------0-----------------------------0-------------------------------|
A|---------------0-----0-----------------------0-----0-------------------|
E|-3-----3-----------------------3-----3---------------------------------|

E|-------------------------2h3-0---------------------------2p0-0---------|
B|-----3-----2---0-----2--------3------3-----2---0-----2-----------------|
G|---0---------------2---------------0---------------2-------------------|
D|---------0---0---------------------------0---0-------------------------|
A|-----------------0-----0-------------------------0-----0---------------|
E|-3-----3-------------------------3-----3-------------------------------|


1:22 - 2:13 (play 5x)
E|---------2h3p2---2-----------0---2-------------------------------------|
B|-----3-------------3-----3---------3-----3-----2h3-5----7---5/2---2----|
G|---2---2-------2-------2-------2-------0-----------0--0---0-----0---0--|
D|-0-------------------------------------------0-------------------------|
A|---------------------4-----4-------------------------------------------|
E|-------------------------------------3-----3-------5-------------------|


2:14 - 2:34 (play 1x)
E|-----------------------2h3-0-------------------------3p2-0-------------|
B|-----3-----2-0-----2--------3------3-----2-0-----2--------3------------|
G|---0-------------2---------------0-------------2-----------------------|
D|---------0-----------------------------0-------------------------------|
A|---------------0-----0-----------------------0-----0-------------------|
E|-3-----3-----------------------3-----3---------------------------------|

E|-------------------------2h3-0---------------------------0-------------|
B|-----3-----2---0-----2--------3------3-----2---0-----2-----2-----------|
G|---0---------------2---------------0---------------2-------------------|
D|---------0---0---------------------------0---0-------------------------|
A|-----------------0-----0-------------------------0-----0---------------|
E|-3-----3-------------------------3-----3-------------------------------|


2:35 - 2:54 (play 1x)
E|---------2-----------0-------------0-2---------------------------------|
B|-----3-----3-----2-----2h3-----3-------3-----3-----2---0---------------|
G|---2-----------2-------------2-------------0-------0-------------------|
D|---------------------------0-----0---------------0---0-----------------|
A|-2-----2-----0-----0---------------------------------------------------|
E|-----------------------------------------3-----3-----------------------|

E|---------2-----------0-------------3p2-0-------------------------------|
B|-----3-----3-----2-----2h3-----3--------3------3-----2-----------------|
G|---2-----------2-------------2---------------0-------0-----------------|
D|---------------------------0-----0-----------------0-------------------|
A|-2-----2-----0-----0---------------------------------------------------|
E|-------------------------------------------3-----3---------------------|


2:55 - END (play 1x)
E|-----------------------2h3-0-------------------------3p2-0-------------|
B|-----3-----2-0-----2--------3------3-----2-0-----2--------3------------|
G|---0-------------2---------------0-------------2-----------------------|
D|---------0-----------------------------0-------------------------------|
A|---------------0-----0-----------------------0-----0-------------------|
E|-3-----3-----------------------3-----3---------------------------------|
 
E|-------------------------2h3-0---------------------------2P0-0---2-----|
B|-----3-----2---0-----2--------3------3-----2---0-----2--------3--3-----|
G|---0---------------2---------------0---------------2-------------2-----|
D|---------0---0---------------------------0---0-------------------0-----|
A|-----------------0-----0-------------------------0-----0---------0-----|
E|-3-----3-------------------------3-----3-------------------------------|
Suggest correction
Give kudos to tab author, rate the tab!
1 2 3 4 5
comments
print report bad tab
guest
You may want to rate the tab now too:
select rating
Wanna post a correction for this tab? Suggest correction