Oops, an error
Loading. Please wait.

Dont Ask Me No Questions Bass Tab

version 2
version 2

Whole song

Interactive

1,209 views 3 this week
no commentswrite comment
1 2 3 4 5
3 more votes to show rating
add to favorites
launch autoscroll
font size
0
reset
guitar tuner
Autoscroll
slow
fast
+/-
esc
set tempo
stop
Help us to improve Ultimate-Guitar.com Take our survey!
×
Author
----------------------------------------------------------------------------
                  Don't Ask Me No Questions - Lynyrd Skynyrd
-----------------------------------------------------------------------------
Tabbed by: paul
E-mail: stashj8@yahoo.com

Tuning: standard

(tacet until 0:08)...

G|----------------------------------------------------------------------|
D|----------------------------------------------------------------------|
A|----------------------------------------------------------------------|
E|-3 (hold)-------------------------------------------------------------|

(0:14)

G|/12-12-12-10--------------------------------------------------------|
D|-------------12-----------------------------------------------------|
A|--------------------------------------------------------------------|
E|--------------------------------------------------------------------|

verse riff (0:16) - play this twice..We'll call this verse 'A'
G|---------------------------------------------------------------|
D|----------------------2-5-----5(0)-----------------------------|
A|33----5x5---2-----2-5-------5----------------------------------|
E|--123----2-5---33---------3------------------------------------|

Still the verse, but play this starting at (0:38) >> Let's call
this verse 'B'
G|----------------------------------------------------------------|
D|---------------2-2-2(0)-----------------------------------------|
A|33----5x5----2---------3-3-3-3---------5-5-5-5--3-3-3-1---------|
E|--123----2-5-------------------3-3-3-3------------------3-3-3-3-|

At (0:53) they play verse 'A' one time.
At (1:00) they play verse 'A' twice and then verse 'B' once.

Finally the bass gets to play the main lick!
At (1:29) We'll call this the 'main riff'.

G|-------------------------------------------------------------|
D|-------------------------------------------------------------|
A|-----0455--0233-31-------------------------------------------|
E|0233---------------33----------------------------------------|


During the guitar solo at (1:43), play verse 'A' 4 times.
(2:13) - play verse 'A' twice.
(2:28) - play verse 'B' once.

(2:43) - play 'main riff' 4 times.

End with this on (3:13)
G|------------------------------------------------------------|
D|-----------------------2-5----------------------------------|
A|33----5x5-----2----2-5--------------------------------------|
E|--123-----2-5---33------------------------------------------|


| /  slide up
| \  slide down
| h  hammer-on
| p  pull-off
| ~  vibrato
| +  harmonic
| x  Mute note
Suggest correction
Give kudos to tab author, rate the tab!
1 2 3 4 5
comments
print report bad tab
guest
You may want to rate the tab now too:
select rating
Wanna post a correction for this tab? Suggest correction