Oops, an error
Loading. Please wait.

Double Trouble Bass Tab

version 1
version 1

Whole song

Interactive

22 views 1 this week
no commentswrite comment
1 2 3 4 5
3 more votes to show rating
add to favorites
launch autoscroll
font size
0
reset
guitar tuner
Autoscroll
slow
fast
+/-
esc
set tempo
stop
Help us to improve Ultimate-Guitar.com Take our survey!
×
Author
Difficulty
novice
Artist : Lynyrd Skynyrd
Album : Gimme Back My Bullets
Song : Double Trouble


Wait 4 bars

[Verse] x2
  4/4 
G|--------------------------------|
D|--------------------------------|
A|--------------------------------| x4
E|5-----0-----3---5-----0-----3---|
  1   +   2   +   3   +   4   +       

G|--------------------------------|--------------------------------|
D|--------------------------------|--------------------------------|
A|5-----0-----3---5-----0-----3---|5-----0-----3---5-----3-----5---|
E|--------------------------------|--------------------------------|
  1   +   2   +   3   +   4   +    1   +   2   +   3   +   4   +   
 1._______________________________                                                                   2/4
G|--------------------------------|--------------------------------|--------------------------------|------|
D|--------------------------------|--------------------------------|--------------------------------|------|
A|--------------------------------|------------5---7-----------7---|5-----0-----3---5-----3-----5r--|------|
E|5-----0-----3---5-----3-----5---|0-----7---------------7---------|--------------------------------|------|
  1   +   2   +   3   +   4   +    1   +   2   +   3   +   4   +    1   +   2   +   3   +   4   +   
 2._______________________________
G|--------------------------------|--------------------------------|--------------------------------|
D|--------------------------------|--------------------------------|--------------------------------|
A|--------------------------------|--------------------------------|------------5---7-----------7---|
E|5-----0-----3---5-----0-----3---|5-----0-----3---5-----3-----5---|0-----7---------------7---------|
  1   +   2   +   3   +   4   +    1   +   2   +   3   +   4   +    1   +   2   +   3   +   4   +   
                                                                    3/8
G|--------------------------------|--------------------------------|------------------------|
D|--------------------------------|--------------------------------|------------------------|
A|5-----0-----3---5-----3-----5---|--------------------------------|------------0---3---4---|
E|--------------------------------|5-----0-----3---5-----0-----3---|5r----------------------|
  1   +   2   +   3   +   4   +    1   +   2   +   3   +   4   +    1   +   2   +   3   +   


[Chorus] x1
  4/4
G|--------------------------------|--------------------------------|--------------------------------|
D|--------------------------------|--------------------------------|--------------------------------|
A|5-----0-----3---5-----0-----3---|5-----0-----3---5-----3-----5---|--------------------------------|
E|--------------------------------|--------------------------------|5-----0-----3---5-----0-----3---|
  1   +   2   +   3   +   4   +    1   +   2   +   3   +   4   +    1   +   2   +   3   +   4   +  
G|--------------------------------|--------------------------------|--------------------------------|
D|--------------------------------|--------------------------------|--------------------------------|
A|--------------------------------|------------5---7-----------7---|5r------------------------------|
E|5-----0-----3---5-----5-----3---|0-----7---------------7---------|--------------------------------|
  1   +   2   +   3   +   4   +    1   +   2   +   3   +   4   +    1   +   2   +   3   +   4   +   

G|----------------5---------------|--------------------------------|
D|----7-----5-----------7-----5---|--------------------------------|
A|--------------------------------|--------------------------------|
E|--------------------------------|5-----0-----3---5r--------------|
  1   +   2   +   3   +   4   +    1   +   2   +   3   +   4   +  


[Verse] x1
   
G|--------------------------------|
D|--------------------------------|
A|--------------------------------| x4
E|5-----0-----3---5-----0-----3---|
  1   +   2   +   3   +   4   +       

G|--------------------------------|--------------------------------|--------------------------------|
D|--------------------------------|--------------------------------|--------------------------------|
A|5-----0-----3---5-----0-----3---|5-----0-----3---5-----3-----5---|--------------------------------|
E|--------------------------------|--------------------------------|5-----0-----3---5-----5-----3---|
  1   +   2   +   3   +   4   +    1   +   2   +   3   +   4   +    1   +   2   +   3   +   4   +  
 
G|--------------------------------|--------------------------------|--------------------------------|
D|--------------------------------|--------------------------------|--------------------------------|
A|------------5---7-----------7---|------------5---7-----------7---|----------------------------3-4-|
E|0-----7---------------7---------|0-----7---------------7---------|5-----0-----3---5-----5---5-----|
  1   +   2   +   3   +   4   +    1   +   2   +   3   +   4   +    1   +   2   +   3   +   4   +  


[Chorus] x2
  4/4
G|--------------------------------|--------------------------------|--------------------------------|
D|--------------------------------|--------------------------------|--------------------------------|
A|5-----0-----3---5-----0-----3---|5-----0-----3---5-----3-----5---|--------------------------------|
E|--------------------------------|--------------------------------|5-----0-----3---5-----0-----3---|
  1   +   2   +   3   +   4   +    1   +   2   +   3   +   4   +    1   +   2   +   3   +   4   + 

G|--------------------------------|--------------------------------|--------------------------------|
D|--------------------------------|--------------------------------|--------------------------------|
A|--------------------------------|------------5---7-----------7---|5r------------------------------|
E|5-----0-----3---5-----5-----3---|0-----7---------------7---------|--------------------------------|
  1   +   2   +   3   +   4   +    1   +   2   +   3   +   4   +    1   +   2   +   3   +   4   +   
 1._______________________________
G|--------------------------------|
D|--------------------------------|
A|----------------3-----------3-4-|
E|----5-----3-----------5---5-----|
  1   +   2   +   3   +   4   +   
 2._______________________________
G|--------------------------------|--------------------------------|
D|--------------------------------|--------------------------------|
A|----------------3---------------|----------------3---------------|
E|----5-----3-----------5-----3---|----5-----3---------5-------3---|
  1   +   2   +   3   +   4   +    1   +   2   +   3   +   4   +  


[Outro]

G|--------------------------------|
D|--------------------------------|
A|----3---------------------------| until the end
E|----------5-----3-----5---------|
  1   +   2   +   3   +   4   +   

Fade out

************************************

| r   Release

************************************
Suggest correction
Give kudos to tab author, rate the tab!
1 2 3 4 5
comments
print report bad tab
guest
You may want to rate the tab now too:
select rating
Wanna post a correction for this tab? Suggest correction