Oops, an error
Loading. Please wait.

Free Bird Tab

version 1
version 1
363,557 views 393 this week
31 commentsread comments
1 2 3 4 5
x 58
add to favorites
launch autoscroll
font size
0
reset
how to read this tab
guitar tuner
Autoscroll
slow
fast
+/-
esc
set tempo
stop
Help us to improve Ultimate-Guitar.com Take our survey!
×
Author
Allen COllins Solo


e|------------------|------------------|--------------------------------|
B|------------------|------------------|--3------------3---3---3-3------|
G|------------------|------------------|--4------------3-x-3-x-3-3--x-x-|
D|------------------|------------------|--5--x-------x-3-x-3-x-3-3--x-x-|
A|------------------|------------------|--5--x---0-2-x-1-x-1-x-1-1--x-x-|
E|------------------|------------------|--3--x-3-----x------------------|

e|-----------------------------|--------------------------------|
B|--5--x-----------------------|--3------------3---3---3-3------|
G|--5--x-----------------------|--4------------3-x-3-x-3-3--x-x-|
D|--5--x-----5----5----5----5--|--5--x-------x-3-x-3-x-3-3--x-x-|
A|--3----5h7----7----7----7----|--5--x---0-2-x-1-x-1-x-1-1--x-x-|
E|-----------------------------|--3--x-3-----x------------------|

e|-----------------------------15----|------------------------------------------|
B|--5----5-5----5---5---5---------15-|--18b18b18b-18b-18-15-18-18r-15-18b-18-15-|
G|--5--x-5-5--x-5-x-5-x-5-x-15-------|------------------------------------------|
D|--5--x-5-5--x-5-x-5-x-5-x----------|------------------------------------------|
A|--3--x-3-3--x-3-x-3-x-3-x----------|------------------------------------------|
E|-----------------------------------|------------------------------------------|

e|---------18-----18-----18----18-------15----|
B|--18b18b----18b----18b----18b---18b------15-|
G|-----------------------------------15-------|
D|--------------------------------------------|
A|--------------------------------------------|
E|--------------------------------------------|

e|------------------------------------------|
B|--18b18b18b-18b-18-15-18-18r-15-18b-18-15-|
G|------------------------------------------|
D|------------------------------------------|
A|------------------------------------------|
E|------------------------------------------|

e|---------18-----18-----18----18----18----18-|
B|--18b18b----18b----18b----18b---18b---18b---|
G|--------------------------------------------|
D|--------------------------------------------|
A|--------------------------------------------|
E|--------------------------------------------|

e|-----18----18----18----18----18----18----18----18-|
B|--18~---18~---18~---18~---18~---18~---18~---18~---|
G|--------------------------------------------------|
D|--------------------------------------------------|
A|--------------------------------------------------|
E|--------------------------------------------------|

e|-----18----18----18----18----18----18-----------|
B|--18~---18~---18~---18~---18~---18~---18~-18-15-|
G|------------------------------------------------|
D|------------------------------------------------|
A|------------------------------------------------|
E|------------------------------------------------|

e|--------------------------------------------------------------------------------|
B|--18-15-18-18-15-18-18b15-18-18-15-18-18b15-18-18-15-18-18b15-18-18-15-18-18b15-|
G|--------------------------------------------------------------------------------|
D|--------------------------------------------------------------------------------|
A|--------------------------------------------------------------------------------|
E|--------------------------------------------------------------------------------|

e|------------------------------------------------------------------------------|
B|--15-18-18-15-18-18-15-18-18b15-18-18b15-18-18r15-18-18r15-18-18r15-18-18r15--|
G|------------------------------------------------------------------------------|
D|------------------------------------------------------------------------------|
A|------------------------------------------------------------------------------|
E|------------------------------------------------------------------------------|

e|--13b-13b-13b-------------------------------------------------------------|
B|--------------18p15----15-18p15----15-18p15----15-18p15----15-18p15----15-|
G|--------------------17----------17----------17----------17----------17----|
D|--------------------------------------------------------------------------|
A|--------------------------------------------------------------------------|
E|--------------------------------------------------------------------------|

e|---------------------------------------------------------------------------------|
B|--18p15----15-18p15----15-18p15----15-18p15----15-18p15----15-18p15----15--------|
G|--------17----------17----------17----------17----------17----------17----17--15-|
D|---------------------------------------------------------------------------------|
A|---------------------------------------------------------------------------------|
E|---------------------------------------------------------------------------------|

e|--------------------------------------------------------------------------|
B|-----------------------------------------------------------------18----18-|
G|-----15~---------15~---15-17p15-17p15----15-17p15----15-17p15-17b---17b---|
D|--17----17p15-17----17----------------17----------17----------------------|
A|--------------------------------------------------------------------------|
E|--------------------------------------------------------------------------|

e|--------------------------------------------------|
B|-----18----18----18----18----18----18----18----18-|
G|--17b---17b---17b---17b---17b---17b---17r---17r---|
D|--------------------------------------------------|
A|--------------------------------------------------|
E|--------------------------------------------------|

e|-----------------------------------------------------------------|
B|-----18----18----18----18----18----18----18----18----18----18----|
G|--17r---17r---17r---17r---17r---17r---17r---17r---17r---17r---17r|
D|-----------------------------------------------------------------|
A|-----------------------------------------------------------------|
E|-----------------------------------------------------------------|

e|-----------------------------------------------------|
B|--18-18-18-18-18-18-18-18-18-18-18-18-18-18----------|
G|--17-17b17b17-17b17b17-17b17b17-17b17b17-17b---------|
D|--------------------------------------------17p15----|
A|--------------------------------------------------17-|
E|-----------------------------------------------------|

e|-----------------------------------------------------------------|
B|-----------------------------------------------------------------|
G|--15----------15----------15----------15----------15----------15-|
D|-----17p15-------17p15-------17p15-------17p15-------17p15-------|
A|-----------17----------17----------17----------17----------17----|
E|-----------------------------------------------------------------|

e|----------------------------------------------------------------------------|
B|----------------------------------------------------------------------------|
G|------------------------------------15--------------------------------------|
D|--17--17----15-17p15-17p15-17p15-------17--17----15-17p15-17p15-17p15----15-|
A|---------17----------------------17-----------17----------------------17----|
E|----------------------------------------------------------------------------|

e|----------------------------------------------------------------------------|
B|----------------------------------------------------------------------------|
G|----------------------------------------------------------------------------|
D|--17--17----15-17p15-17p15-17p15----15-17--17----15-17p15-17p15-17p15----15-|
A|---------17----------------------17-----------17----------------------17----|
E|----------------------------------------------------------------------------|

e|---------------------------------------------------|
B|---------------------------------------------------|
G|------------15-----------15-----------15--------17b|
D|--17--15-------17--15-------17--15-------17--15----|
A|---------17-----------17-----------17--------------|
E|---------------------------------------------------|

e|--------------------------------------------------------------------------------|
B|--------------------------------------------------------------------------------|
G|--17-15-------17b17-15-------17b17-15-------17b17-15-------17b17-15-------17b17-|
D|--------17-15----------17-15----------17-15----------17-15----------17-15-------|
A|--------------------------------------------------------------------------------|
E|--------------------------------------------------------------------------------|

e|---------------------------------------------------------------|
B|---------------------------------------------------------------|
G|--------17b17-15-------17b17-15-------17b17b-17b17-17-15-15-15-|
D|--17-15----------17-15----------17-15--------------------------|
A|---------------------------------------------------------------|
E|---------------------------------------------------------------|

e|--------------------------------------------|
B|--------------------------------------------|
G|--------------------------------------------|
D|--17----17----15b-15----15-15r----15b-15----|
A|-----------17--------17--------17--------17-|
E|-----19-------------------------------------|

e|---------------------------------------------|
B|---------------------------------------------|
G|---------15-----15-----15----15--------------|
D|--15b15b----15b----15b----15b---15b----17----|
A|------------------------------------------17-|
E|------------------------------------18-------|

e|------------------------------------------|
B|------------------------------------------|
G|------------------------------------------|
D|--15-15b15b-15b-15----15-15r----15b-15----|
A|-------------------17--------17--------17-|
E|------------------------------------------|

e|--------------------------------------|
B|--------------------------------------|
G|---------15-----15--------------------|
D|--15b15b----15b----15b-15b-15b-15b-15-|
A|--------------------------------------|
E|--------------------------------------|

e|------------------------------------------|
B|------------------------------------------|
G|-------------------15--------15--------15-|
D|--17--17-15-17--17-15-17--17-15-17--17-15-|
A|------------------------------------------|
E|------------------------------------------|

e|----------------------------------------|
B|----------------------------------------|
G|---------15--------15-------------------|
D|--17--17-15-17--17-15-17-17b-17b-17b-15-|
A|----------------------------------------|
E|----------------------------------------|

e|--------------------------------------------------------|
B|--------------------------------------------------------|
G|---------15--------15-16-17-17r15--------15-16-17-17r15-|
D|--17--17-15-17--17----------------17--17----------------|
A|--------------------------------------------------------|
E|--------------------------------------------------------|

e|----------------------------------------|
B|----------------------------------------|
G|----------------------------------------|
D|--17--17-15-17--17-15-17-17b-17b-17b-14-|
A|----------------------------------------|
E|----------------------------------------|

e|-------------------------------------------|
B|-------------------------------------------|
G|-----------------------------------15b-15--|
D|--17-----17--17-19p17----17-----17---------|
A|------19--------------19-----19------------|
E|-------------------------------------------|

e|---------------------------------------3-6---|
B|-------------------------------------6-----8-|
G|-----15--------------------------------------|
D|--17----17-15-17-15b-15b-15b-15b-15b---------|
A|---------------------------------------------|
E|---------------------------------------------|

e|--5p3---3-6p3-5p3---3-6p3-5p3---3-6p3-5p3---3-6p3-5p3---3-6p3-5p3-|
B|------6-----------6-----------6-----------6-----------6-----------|
G|------------------------------------------------------------------|
D|------------------------------------------------------------------|
A|------------------------------------------------------------------|
E|------------------------------------------------------------------|

e|----3-6p3-5p3---3-6p3-5p3---3-6p3-5p3---3-6p3-5p3/----15-|
B|--6-----------6-----------6-----------6------------------|
G|---------------------------------------------------------|
D|---------------------------------------------------------|
A|---------------------------------------------------------|
E|---------------------------------------------------------|

e|-----------15----------15----------15----------15----------15----------15-------|
B|--18p15-------18p15-------18p15-------18p15-------18p15-------18p15-------18p15-|
G|--------17----------17----------17----------17----------17----------17----------|
D|--------------------------------------------------------------------------------|
A|--------------------------------------------------------------------------------|
E|--------------------------------------------------------------------------------|

e|-----------15----------15----------15----------15----------15----------15-------|
B|--18p15-------18p15-------18p15-------18p15-------18p15-------18p15-------18p15-|
G|--------17----------17----------17----------17----------17----------17----------|
D|--------------------------------------------------------------------------------|
A|--------------------------------------------------------------------------------|
E|--------------------------------------------------------------------------------|

e|-----------15----------15----------15----------15----------15----------15-------|
B|--18p15-------18p15-------18p15-------18p15-------18p15-------18p15-------18p15-|
G|--------17----------17----------17----------17----------17----------17----------|
D|--------------------------------------------------------------------------------|
A|--------------------------------------------------------------------------------|
E|--------------------------------------------------------------------------------|

e|-----------15----------15----------15----------15----------15----------15-------|
B|--18p15-------18p15-------18p15-------18p15-------18p15-------18p15-------18p15-|
G|--------17----------17----------17----------17----------17----------17----------|
D|--------------------------------------------------------------------------------|
A|--------------------------------------------------------------------------------|
E|--------------------------------------------------------------------------------|

e|-----18p15----18p15----18p15----18p15----18p15----18p15----18p15----18p15----18--|p
B|--15-------15-------15-------15-------15-------15-------15-------15-------15-----|
G|---------------------------------------------------------------------------------|
D|---------------------------------------------------------------------------------|
A|---------------------------------------------------------------------------------|
E|---------------------------------------------------------------------------------|

e|---------------------------------------------------------------------------------|
B|-----18p15----18p15----18p15----18p15----18p15----18p15----18p15----18p15----18--|p
G|--15-------15-------15-------15-------15-------15-------15-------15-------15-----|
D|---------------------------------------------------------------------------------|
A|---------------------------------------------------------------------------------|
E|---------------------------------------------------------------------------------|

e|--13b--13b--13b13b13r-13-13-13----------|
B|-------------------------------15-15-15-|
G|----------------------------------------|
D|----------------------------------------|
A|----------------------------------------|
E|----------------------------------------|

e|----------------------------------------|
B|--13b--13b--13b13b13r-13-13-13-11-11-11-|
G|----------------------------------------|
D|----------------------------------------|
A|----------------------------------------|
E|----------------------------------------|

e|--------6---6---6-----6-------6---6---6-----6-|
B|--8--8----8---8-8-6-----8--8----8---8-8-6-----|
G|--------------------7---------------------7---|
D|----------------------------------------------|
A|----------------------------------------------|
E|----------------------------------------------|

e|-----6-----6----6-----6----6-----6-------|----------------------------------|
B|--8--8-6-----8--8-6-----8--8-6-----8-----|--8----8--8-10---8----8--8-10p8---|
G|---------7----------7----------7-------9-|-----9---------9----9-----------9-|
D|-----------------------------------------|----------------------------------|
A|-----------------------------------------|----------------------------------|
E|-----------------------------------------|----------------------------------|

e|-----------------------------------|---------------------------------|
B|--8----8----8-10b-10b10b11b10b-8---|--8--10b-10b-10b---10b-10b-10b10b|
G|-----9----9----------------------9-|---------------------------------|
D|-----------------------------------|---------------------------------|
A|-----------------------------------|---------------------------------|
E|-----------------------------------|---------------------------------|

e|----------------------------------------|--10--10--10--10--10--10--10--10--|
B|---10b10b10b-10b10b10b-10b10b10b---8-10-|--10b-10b-10b-10b-10b-10b-10b-10r-|
G|---------------------------------9------|----------------------------------|
D|----------------------------------------|----------------------------------|
A|----------------------------------------|----------------------------------|
E|----------------------------------------|----------------------------------|

e|--10--10-10--10-10---10-10--10-10--10-10-10-|--10--10--10--10--10--10--10--10--|
B|--8------8---8--10p8----8------8------8--10-|--10b-10b-10b-10b-10b-10b-10b-10r-|
G|------9--------------9------9------9--------|----------------------------------|
D|--------------------------------------------|----------------------------------|
A|--------------------------------------------|----------------------------------|
E|--------------------------------------------|----------------------------------|

e|--10--10-10--10-10---10-10--10-10--10-10-10-|--10--10--10--10--10--10--10--10--|
B|--8------8---8--10p8----8------8------8--10-|--10b-10b-10b-10b-10b-10b-10b-10b-|
G|------9--------------9------9------9--------|----------------------------------|
D|--------------------------------------------|----------------------------------|
A|--------------------------------------------|----------------------------------|
E|--------------------------------------------|----------------------------------|

e|--10--10--10--10--10--10--10--10--|
B|--10b-10b-10b-10b-10b-10b-10b-10r-|
G|----------------------------------|
D|----------------------------------|
A|----------------------------------|
E|----------------------------------|

e|--10--10-10--10-10---10-10--10-10--10-10---10-|
B|--8------8---8--10p8----8------8---8--10p8----|
G|------9--------------9------9--------------9--|
D|----------------------------------------------|
A|----------------------------------------------|
E|----------------------------------------------|

e|--10--10-10--10-10---10-10--10-10--10-10-13-|
B|--8------8---8--10p8----8------8------8-----|
G|------9--------------9------9------9--------|
D|--------------------------------------------|
A|--------------------------------------------|
E|--------------------------------------------|

e|------13-----13-----13-----13-----13----|
B|--13b----13b----13b----13b----13b----13b|
G|----------------------------------------|
D|----------------------------------------|
A|----------------------------------------|
E|----------------------------------------|

e|---13----13----13----13----13----13----13------|
B|------13b---13b---13b---13b---13b---13b---13bx-|
G|---------------------------------------------x-|
D|-----------------------------------------------|
A|-----------------------------------------------|
E|-----------------------------------------------|

e|------18-----18-----18-----18-----18----|
B|--18b----18b----18b----18b----18b----18b|
G|----------------------------------------|
D|----------------------------------------|
A|----------------------------------------|
E|----------------------------------------|

e|---18----18----18----18----18----18-----22--|
B|------18b---18b---18b---18b---18b---18b-18b-|
G|--------------------------------------------|
D|--------------------------------------------|
A|--------------------------------------------|
E|--------------------------------------------|

e|------22-----22-----22-----22-----22----|
B|--22b----22b----22b----22b----22b----22b|
G|----------------------------------------|
D|----------------------------------------|
A|----------------------------------------|
E|----------------------------------------|

e|---22----22----22----22----22----22----22----22-|
B|------22b---22b---22b---22b---22b---22b---22b---|
G|------------------------------------------------|
D|------------------------------------------------|
A|------------------------------------------------|
E|------------------------------------------------|

e|-----22----22----22----22----22----22----22----22-|
B|--22b---22b---22b---22b---22b---22b---22b---22b---|
G|--------------------------------------------------|
D|--------------------------------------------------|
A|--------------------------------------------------|
E|--------------------------------------------------|

e|-----22----22----22----22----22----22----22----22-22-22-22-22-22-22-22-22-22-22--|
B|--22b---22b---22b---22b---22b---22b---22b---22b22b22b22b22b22b22b22b22b22b22b22b-|
G|---------------------------------------------------------------------------------|
D|---------------------------------------------------------------------------------|
A|---------------------------------------------------------------------------------|
E|---------------------------------------------------------------------------------|

e|---------------------------------------|
B|---8b-13--11-8-11b-11-13-8-11-13-13b11-|
G|---------------------------------------|
D|---------------------------------------|
A|---------------------------------------|
E|---------------------------------------|

e|---------------------------------------15-|
B|--13-8-11-13-11-8-13b8-11-13-11b-8--------|
G|------------------------------------17----|
D|------------------------------------------|
A|------------------------------------------|
E|------------------------------------------|

e|-----------15----------15----------15----------15----------15----------15-------|
B|--18p15-------18p15-------18p15-------18p15-------18p15-------18p15-------18p15-|
G|--------17----------17----------17----------17----------17----------17----------|
D|--------------------------------------------------------------------------------|
A|--------------------------------------------------------------------------------|
E|--------------------------------------------------------------------------------|

e|----------------------------------------|
B|--18b-18b-18r-18----18------------------|
G|-----------------19-----19-17-19--17-16-|
D|----------------------------------------|
A|----------------------------------------|
E|----------------------------------------|

e|---------------------------------------------------------------------------------|
B|---------------------------------------------------------------------------------|
G|--17--16----16-19p16----16-19p16----16-19p16----16-19p16----16-19p16----16-19p16-|
D|---------17----------17----------17----------17----------17----------17----------|
A|---------------------------------------------------------------------------------|
E|---------------------------------------------------------------------------------|

e|--------------------------------------------------|
B|--------------------------------------------------|
G|--19b-19b-19r-19-19-19p17-17-17-17p16h17-16h17p16-|
D|--------------------------------------------------|
A|--------------------------------------------------|
E|--------------------------------------------------|

e|--------------------------------------------------------------|
B|--------------------------------------------------------------|
G|--16/---4h7---4h7---4h7---4h7---4h7---4h7---4h7---4h7---4h7---|
D|------5-----5-----5-----5-----5-----5-----5-----5-----5-----5-|
A|--------------------------------------------------------------|
E|--------------------------------------------------------------|

e|-------------------------------------------------------------|
B|-------------------------------------------------------------|
G|--4h7---4h7---4h7---4h7---4h7---4h7---4h7---4h7---4h7---4h7/-|
D|------5-----5-----5-----5-----5-----5-----5-----5-----5------|
A|-------------------------------------------------------------|
E|-------------------------------------------------------------|

e|-------------------------------|-------------------------------|
B|--8--8b-8r-8-8-8/5-5-5-5/3-3/1-|-------------------------------|
G|-------------------------------|--5-4---5-4---5b-5--5-4-5-4----|
D|-------------------------------|------5-----5---------------5/-|
A|-------------------------------|-------------------------------|
E|-------------------------------|-------------------------------|

e|----------------------------------|-----------------------------------|
B|--8----8--8-10---8----8--8-10p8---|--8----8----8-10b-10b10b10b10b-8---|
G|-----9---------9----9-----------9-|-----9----9----------------------9-|
D|----------------------------------|-----------------------------------|
A|----------------------------------|-----------------------------------|
E|----------------------------------|-----------------------------------|

e|-------------------------------------|---------------------------------------|
B|--8--10b-10b-10b-10b-10b10b-10b10b10b|---10b10b10b-10b10b10b-10-8---8---8-10-|
G|-------------------------------------|----------------------------9---9------|
D|-------------------------------------|---------------------------------------|
A|-------------------------------------|---------------------------------------|
E|-------------------------------------|---------------------------------------|

e|--10-10-10---10-10--10--10--10--10--|
B|--10b10-10b--10r8---10--10--10--10r-|
G|------------------------------------|
D|------------------------------------|
A|------------------------------------|
E|------------------------------------|

e|--10--10-10--10-10---10-10--10-10--10-10-10-|--10--10--10--10--10--10--10--10--|
B|--8------8---8--10p8----8------8------8--10-|--10b-10b-10b-10b-10r-10--10--10r-|
G|------9--------------9------9------9--------|----------------------------------|
D|--------------------------------------------|----------------------------------|
A|--------------------------------------------|----------------------------------|
E|--------------------------------------------|----------------------------------|

e|--10--10-10--10-10---10-10--10-10--10-10-10-|--10--10--10--10--10--10--10--10--|
B|--8------8---8--10p8----8------8------8--10-|--10b-10b-10b-10b-10r-10--10--10r-|
G|------9--------------9------9------9--------|----------------------------------|
D|--------------------------------------------|----------------------------------|
A|--------------------------------------------|----------------------------------|
E|--------------------------------------------|----------------------------------|

e|--10--10-10--10-10---10-10--10-10--10-10-10-|--10------10------10------10------|
B|--8------8---8--10p8----8------8------8--10-|--10b-----10b-----10b-----10b-----|
G|------9--------------9------9------9--------|-------12------12------12------12-|
D|--------------------------------------------|----------------------------------|
A|--------------------------------------------|----------------------------------|
E|--------------------------------------------|----------------------------------|

e|--10--10-10--10-10---10-10--10-10--10-10-10-|--10--10--10--10--10--10--10--10--|
B|--8------8---8--10p8----8------8------8--10-|--10b-10b-10b-10b-10b-10b-10b-10r-|
G|------9--------------9------9------9--------|----------------------------------|
D|--------------------------------------------|----------------------------------|
A|--------------------------------------------|----------------------------------|
E|--------------------------------------------|----------------------------------|

e|--10--10-10--10-10---10-10--10-10--x-------|
B|--8------8---8--10p8----8------8---x-15-18-|
G|------9--------------9------9--------------|
D|-------------------------------------------|
A|-------------------------------------------|
E|-------------------------------------------|

e|--15~-------15~-------15~-------15~-------|
B|------15-18-----15-18-----15-18-----15-18-|
G|------------------------------------------|
D|------------------------------------------|
A|------------------------------------------|
E|------------------------------------------|

e|--15~-------15~--------------------------------|
B|------15-18-----15-18-18b18b18b18~-18-15-15h18-|
G|-----------------------------------------------|
D|-----------------------------------------------|
A|-----------------------------------------------|
E|-----------------------------------------------|

e|---------------------------------------------------------------|
B|--18b-18-15-18b18b18p15----18b18b18b18p15----18b18b18b18p15----|
G|------------------------15~---------------15~---------------15~|
D|---------------------------------------------------------------|
A|---------------------------------------------------------------|
E|---------------------------------------------------------------|

e|-------------------------------------------------------15----|
B|--18b18b18b18p15----18b18b18b18p15----18b18b18r-18b-------15-|
G|-----------------15----------------15---------------15-------|
D|-------------------------------------------------------------|
A|-------------------------------------------------------------|
E|-------------------------------------------------------------|

e|--18p15----18p15----18p15----18p15----18p15----18p15----18p15----18p15----18p15-|
B|--------15-------15-------15-------15-------15-------15-------15-------15-------|
G|--------------------------------------------------------------------------------|
D|--------------------------------------------------------------------------------|
A|--------------------------------------------------------------------------------|
E|--------------------------------------------------------------------------------|

e|--18p15----18p15----18p15----18p15----18p15----18b-18b-18b-18-15-|
B|--------15-------15-------15-------15-------15-------------------|
G|-----------------------------------------------------------------|
D|-----------------------------------------------------------------|
A|-----------------------------------------------------------------|
E|-----------------------------------------------------------------|

e|------------------------------------------------------------------------|
B|--18-18b18-18~-18b18-15-18p15----18p15----18p15----18p15----18p15----18p|
G|------------------------------15-------15-------15-------15-------15----|
D|------------------------------------------------------------------------|
A|------------------------------------------------------------------------|
E|------------------------------------------------------------------------|

e|--------------------------------------------------------------------------------|
B|--15----18p15----18p15----18p15----18p15----18p15----18p15----18p15----18p15----|
G|-----15-------15-------15-------15-------15-------15-------15-------15-------15-|
D|--------------------------------------------------------------------------------|
A|--------------------------------------------------------------------------------|
E|--------------------------------------------------------------------------------|

e|-------------------15-15-15-15----------|------------------------------|
B|--18b--18b-18b18r--18-18-18-18----------|------------------------8-----|
G|-------------------------------19-19-19-|--17b17b17r-15r---12r---10r---|
D|----------------------------------------|------------------------------|
A|----------------------------------------|------------------------------|
E|----------------------------------------|------------------------------|

e|-----------------------|---------------------------|
B|--6----5----3---3---3--|--3--3--3--3--3--3--3--3-3/|
G|--8r---7r---5b--5b--5b-|--5b-5b-5b-5b-5b-5b-5b-5b--|
D|-----------------------|---------------------------|
A|-----------------------|---------------------------|
E|-----------------------|---------------------------|

e|----------------------------------------------|
B|--11-11-13/3/11-10-13/3/11-11-13/3/11-10-13/3/|
G|----------------------------------------------|
D|----------------------------------------------|
A|----------------------------------------------|
E|----------------------------------------------|

e|------------------------------------------|
B|--11-11-13/3/11-10-13/3/11-11-13b-13r-11--|
G|------------------------------------------|
D|------------------------------------------|
A|------------------------------------------|
E|------------------------------------------|

e|-------------------------------------------|-----------------------------------|
B|-------------------------------------------|--------8--8-10---8-10---8----8-10-|
G|--12--12--12--12--10-10-10--10-------------|------9---------9------9----9------|
D|-------------------------------12p10h12-10-|-----------------------------------|
A|-------------------------------------------|--10/------------------------------|
E|-------------------------------------------|-----------------------------------|

e|--10--10--10--10--10--10--10--10--|--10--10--10--10--10--10--10--10---|
B|--10b-10b-10b-10b-10b-10b-10b-10b-|--10b-------------10b------------8-|
G|----------------------------------|-----------------------------------|
D|----------------------------------|-----------------------------------|
A|----------------------------------|-----------------------------------|
E|----------------------------------|-----------------------------------|

e|--10--10----10---10--10---10-10----------|
B|--10b-10~---10r8-10--8----8--10p8h10p8---|
G|------------------------9--------------9-|
D|-----------------------------------------|
A|-----------------------------------------|
E|-----------------------------------------|

e|--10--10-10--10-10---10-10--10-10----------|
B|--8------8---8--10p8----8------8--------15-|
G|------9--------------9------9------8/15----|
D|-------------------------------------------|
A|-------------------------------------------|
E|-------------------------------------------|

e|------------------------------------------|
B|--18b-15-18-------------------------------|
G|------------17r-15-17~--15----17-15-------|
D|---------------------------17-------17-15-|
A|------------------------------------------|
E|------------------------------------------|

e|----------------------------------------------------|
B|----------------------------------------------------|
G|----------------------------------------------------|
D|----------------------------------------------------|
A|--17p15----15----------------------15------------5--|
E|--------18----15-18-15-15-18-15-15----15-17b-15/-5--|

e|------------------------------|--------------------------------|
B|------------------------------|--------------------------------|
G|--------------3-x-3-x-3-3---x-|--5--x-5-5--x-5-5-5-5-5-5-5-5-5-|
D|--5--x-5-5--x-3-x-3-x-3-3---x-|--5--x-5-5--x-5-5-5-5-5-5-5-5-5-|
A|--5--x-5-5--x-1-x-1-x-1-1---x-|--3--x-3-3--x-3-3-3-3-3-3-3-3-3-|
E|--3--x-3-3--x-----------------|--------------------------------|

e|------------------------------|--------------------------------|
B|------------------------------|--------------------------------|
G|--------------3-x-3-x-3-3---x-|--5--x-5-5--x-5-5-5-5-5-5-5-5-5-|
D|--5--x-5-5--x-3-x-3-x-3-3---x-|--5--x-5-5--x-5-5-5-5-5-5-5-5-5-|
A|--5--x-5-5--x-1-x-1-x-1-1---x-|--3--x-3-3--x-3-3-3-3-3-3-3-3-3-|
E|--3--x-3-3--x-----------------|--------------------------------|

e|-----------------------------------------------|
B|-----------------------------------------------|
G|--4----4-4-4-4-4-4-4-4-4-4-4-4-4-4-4-4-4-4-4-4-|
D|--5----5-5-5-5-5-5-5-5-5-5-5-5-5-5-5-5-5-5-5-5-|
A|--5----5-5-5-5-5-5-5-5-5-5-5-5-5-5-5-5-5-5-5-5-|
E|--3----3-3-3-3-3-3-3-3-3-3-3-3-3-3-3-3-3-3-3-3-|

e|------------------------------------------------------------------|--3-------|
B|------------------------------------------------------------------|--3-------|
G|--4-4-4-4-4-4-4-4-4-4-4-4-4-4-4-4-4-4-4-4-4-4-4-4-4-4-4-4-4-4-4-4-|--4-------|
D|--5-5-5-5-5-5-5-5-5-5-5-5-5-5-5-5-5-5-5-5-5-5-5-5-5-5-5-5-5-5-5-5-|--5-------|
A|--5-5-5-5-5-5-5-5-5-5-5-5-5-5-5-5-5-5-5-5-5-5-5-5-5-5-5-5-5-5-5-5-|--5-------|
E|--3-3-3-3-3-3-3-3-3-3-3-3-3-3-3-3-3-3-3-3-3-3-3-3-3-3-3-3-3-3-3-3-|--3-------|

e|---------------------------------------------------------|
B|---------------------------------------------------------|
G|--7--7-7-7-7-7-7-7-7-7-7-7-7-7-7-7-7-7-7-7-7-7-7-7-7-7-7-|
D|--8--8-8-8-8-8-8-8-8-8-8-8-8-8-8-8-8-8-8-8-8-8-8-8-8-8-8-|
A|--8--8-8-8-8-8-8-8-8-8-8-8-8-8-8-8-8-8-8-8-8-8-8-8-8-8-8-|
E|--6--6-6-6-6-6-6-6-6-6-6-6-6-6-6-6-6-6-6-6-6-6-6-6-6-6-6-|

e|------------------------------------------------------------------|
B|------------------------------------------------------------------|
G|--7-7-7-7-7-7-7-7-7-7-7-7-7-7-7-7-7-7-7-7-7-7-7-7-7-7-7-7-7-7-7-7-|
D|--8-8-8-8-8-8-8-8-8-8-8-8-8-8-8-8-8-8-8-8-8-8-8-8-8-8-8-8-8-8-8-8-|
A|--8-8-8-8-8-8-8-8-8-8-8-8-8-8-8-8-8-8-8-8-8-8-8-8-8-8-8-8-8-8-8-8-|
E|--6-6-6-6-6-6-6-6-6-6-6-6-6-6-6-6-6-6-6-6-6-6-6-6-6-6-6-6-6-6-6-6-|

e|------------------------------------------------------------------|--6-------|
B|------------------------------------------------------------------|--6-------|
G|--7-7-7-7-7-7-7-7-7-7-7-7-7-7-7-7-7-7-7-7-7-7-7-7-7-7-7-7-7-7-7-7-|--7-------|
D|--8-8-8-8-8-8-8-8-8-8-8-8-8-8-8-8-8-8-8-8-8-8-8-8-8-8-8-8-8-8-8-8-|--8-------|
A|--8-8-8-8-8-8-8-8-8-8-8-8-8-8-8-8-8-8-8-8-8-8-8-8-8-8-8-8-8-8-8-8-|--8-------|
E|--6-6-6-6-6-6-6-6-6-6-6-6-6-6-6-6-6-6-6-6-6-6-6-6-6-6-6-6-6-6-6-6-|--6-------|

e|--------------------------------------------------------------------------------|
B|--------------------------------------------------------------------------------|
G|--9--9--9--9--9--9--9--9--9--9--9--9--9--9--9--9--9--9--9--9--9--9--9--9--9--9--|
D|--10-10-10-10-10-10-10-10-10-10-10-10-10-10-10-10-10-10-10-10-10-10-10-10-10-10-|
A|--10-10-10-10-10-10-10-10-10-10-10-10-10-10-10-10-10-10-10-10-10-10-10-10-10-10-|
E|--8--8--8--8--8--8--8--8--8--8--8--8--8--8--8--8--8--8--8--8--8--8--8--8--8--8--|

e|--------------------------------------------------------------------------------|
B|--------------------------------------------------------------------------------|
G|--9--9--9--9--9--9--9--9--9--9--9--9--9--9--9--9--9--9--9--9--9--9--9--9--9--9--|
D|--10-10-10-10-10-10-10-10-10-10-10-10-10-10-10-10-10-10-10-10-10-10-10-10-10-10-|
A|--10-10-10-10-10-10-10-10-10-10-10-10-10-10-10-10-10-10-10-10-10-10-10-10-10-10-|
E|--8--8--8--8--8--8--8--8--8--8--8--8--8--8--8--8--8--8--8--8--8--8--8--8--8--8--|

e|--------------------------------------------------------------------------------|
B|--------------------------------------------------------------------------------|
G|--9--9--9--9--9--9--9--9--9--9--9--9--9--9--9--9--9--9--9--9--9--9--9--9--9--9--|
D|--10-10-10-10-10-10-10-10-10-10-10-10-10-10-10-10-10-10-10-10-10-10-10-10-10-10-|
A|--10-10-10-10-10-10-10-10-10-10-10-10-10-10-10-10-10-10-10-10-10-10-10-10-10-10-|
E|--8--8--8--8--8--8--8--8--8--8--8--8--8--8--8--8--8--8--8--8--8--8--8--8--8--8--|

e|--------------------------------------------------------------------------------|
B|--------------------------------------------------------------------------------|
G|--9--9--9--9--9--9--9--9--9--9--9--9--9--9--9--9--9--9--9--9--9--9--9--9--9--9--|
D|--10-10-10-10-10-10-10-10-10-10-10-10-10-10-10-10-10-10-10-10-10-10-10-10-10-10-|
A|--10-10-10-10-10-10-10-10-10-10-10-10-10-10-10-10-10-10-10-10-10-10-10-10-10-10-|
E|--8--8--8--8--8--8--8--8--8--8--8--8--8--8--8--8--8--8--8--8--8--8--8--8--8--8--|

e|-----------|---------------------------------------------------|
B|-----------|---------------------------------------------------|
G|--9--------|---------------------------------------------------|
D|--10-------|---------------------------12-15p13p12----12-13-15-|
A|--10-------|---------------------13-15-------------15----------|
E|--8--------|--15~-------------15-------------------------------|

e|-------------------------------------------------------------------------|
B|-------------------------------------------------------------------------|
G|-------------------------------------------------------------------------|
D|--15~-------15--15p13p12----12-13-15-13h15p13p12-------12h13p12----------|
A|-------------------------15----------------------15p13----------15p13p12-|
E|-------------------------------------------------------------------------|

e|------------------------------------------------------------------------|
B|------------------------------------------------------------------------|
G|------------------------------------------------------------------------|
D|------------------------------------------------------12-13-12----------|
A|--12h13p12-----------------------12-13-12----13-13-15----------15-13----|
E|-----------15p13p12-----12-13-15----------15-------------------------13-|

e|----------------------|
B|----------------------|
G|----------------------|
D|----------------------|
A|----------------14----|
E|--15b-----------------|

e|----------------------------------------------------------|
B|----------------------------------------------------------|
G|----------------------------------------------------------|
D|-------------17p15----------------------------------------|
A|----------17-------17p15p13----15p13----15p13----15p13----|
E|----------------------------15-------15-------15-------15-|

e|-------------------------|
B|-------------------------|
G|-------------------------|
D|-------------------------|
A|--13b--13b13b-------14---|
E|-------------------------|

e|----------------------------------------------------------------|
B|------3/--15-15-15-15-15-15-15-15-15-15-15-15-15-15-15-15-15-15-|
G|------4/--15-16-16-16-16-16-16-16-16-16-16-16-16-16-16-16-16-16-|
D|----------------------------------------------------------------|
A|----------------------------------------------------------------|
E|----------------------------------------------------------------|

e|--15-15-15-15-15-15-15-15-15-15-15-15-15-15-15-15-15-15-15-15-15-15-15-15-15-15-|
B|--15-15-15-15-15-15-15-15-15-15-15-15-15-15-15-15-15-15-15-15-15-15-15-15-15-15-|
G|--16-16-16-16-16-16-16-16-16-16-16-16-16-16-16-16-16-16-16-16-16-16-16-16-16-16-|
D|--------------------------------------------------------------------------------|
A|--------------------------------------------------------------------------------|
E|--------------------------------------------------------------------------------|

e|--15-15-15-15-15-15-15-15-15-15-15-15-15-15-15-15-15-15-15-15-15-15-15-15-15-15-|
B|--15-15-15-15-15-15-15-15-15-15-15-15-15-15-15-15-15-15-15-15-15-15-15-15-15-15-|
G|--16-16-16-16-16-16-16-16-16-16-16-16-16-16-16-16-16-16-16-16-16-16-16-16-16-16-|
D|--------------------------------------------------------------------------------|
A|--------------------------------------------------------------------------------|
E|--------------------------------------------------------------------------------|

e|--15-15-15-15-15-15-15-15-15-15-15-15-15-15-15-15-15-15-15-15-15-15-15-15-15-15-|
B|--15-15-15-15-15-15-15-15-15-15-15-15-15-15-15-15-15-15-15-15-15-15-15-15-15-15-|
G|--16-16-16-16-16-16-16-16-16-16-16-16-16-16-16-16-16-16-16-16-16-16-16-16-16-16-|
D|--------------------------------------------------------------------------------|
A|--------------------------------------------------------------------------------|
E|--------------------------------------------------------------------------------|

e|--15-15-15-15-15-15-15-15-15-15-15-15-15-15-15-15-15-15-15-15-15-15-15-15-15-15-|
B|--15-15-15-15-15-15-15-15-15-15-15-15-15-15-15-15-15-15-15-15-15-15-15-15-15-15-|
G|--16-16-16-16-16-16-16-16-16-16-16-16-16-16-16-16-16-16-16-16-16-16-16-16-16-16-|
D|--------------------------------------------------------------------------------|
A|--------------------------------------------------------------------------------|
E|--------------------------------------------------------------------------------|

e|--3-------|--------------------|------------------||
B|--3-------|--------------------|------------------||
G|--4-------|--------------------|------------------||
D|--5-------|--5----5/-----------|------------------||
A|--5-------|--5----5/-----------|------------------||
E|--3-------|--3----3/-----------|------------------||



************************************

| x  Dead note
| h  Hammer-on
| p  Pull-off
| r  Release
| b  Bend
| /  Slide up
| ~  Vibrato

************************************
Suggest correction
comments
print report bad tab
31 comments total. Showing first comments.
+1 reply
Rodders 30 Mar 31, 2005 12:00 AM

Is this qa live version cause it gos on for ages......way longer than the actual version....

0 reply
LuCerO(iC) 10 Mar 31, 2005 12:00 AM

this really isnt exactly accurate but its a pretty good attempt good job man you definatly have an ear for notes. and the longest version, "the live version" is the real solo, what its meant to be
at the beginning where u have the intro chords into the solo i think they are:
|--------|
|--------|
|-4-7--9-|
|-5-8-10-|
|-5-8-10-|
|-3-6--8-|
those are the chords i think the intro is made up of, i have this whole long ass video of the live verion and also in your beginning part i think it sounds better as:
|----15--------------------------------------------------|
|-15----15--18b-18b-18b-18-15-18^vb-18-15-18-18-18-18-15-|
|--------------------------------------------------------|
|--------------------------------------------------------|
|--------------------------------------------------------|
|--------------------------------------------------------|
continued... the ending of this riff is where im trying to show you
|-18----18----18----18----18----15----|
|----18----18----18----18~---------15-|
|----------------------------16-------|
|-------------------------------------|
|-------------------------------------|
|-------------------------------------|
that ending i think u had the 16 as a 15.. but thats ok.. theres some more stuff wrong but its a good interpritation of the live version that i have.. good job

-1 reply
high voltage 8,510 Mar 31, 2005 12:00 AM

Nice work man, it seems "mostly" correct!

guest
You may want to rate the tab now too:
select rating
Wanna post a correction for this tab? Suggest correction