Oops, an error
Loading. Please wait.

Free Bird Tab

version 3
version 3
235,662 views 117 this week
41 commentsread comments
1 2 3 4 5
excellent!
x 88
add to favorites
launch autoscroll
font size
0
reset
how to read this tab
guitar tuner
Autoscroll
slow
fast
+/-
esc
set tempo
stop
Help us to improve Ultimate-Guitar.com Take our survey!
×
Accoustic.

     G     D/F#  Em         F      C     Dsus2 
e|--3^----------0^--0^-----1^-----0^-----3^--------|
B|--0^----------0^--0^-----1^-----1^-----3^--------|
G|--0^----------0^--0^-----2^-----0^-----2^--------| X2
D|--0^----------2^--2^-----3^-----2^-----0^--------| 
A|--2^----------2^--2^-----3^-----3^---------------|
E|--3^-----2----0^--0^-----1^----------------------|


GTR1 With slide
         G        D/F#      Em
e|------------------------------------------------------------|
B|---3-/-8--7/8-\-7------8--8-\7-\5-\3/5/7--3/5--5-/-3--------|
G|------------------------------------------------------4--4/-|
D|------------------------------------------------------------|
A|------------------------------------------------------------|
E|------------------------------------------------------------|

    F          C                      D
e|------------------------------------------------------------|
B|------6-6-6\5-----------------------------------------------|
G|-/5-----------5---------4--5----7--\-5-/7--(7)-/19-\-----19-|
D|----------------5\---/5------------------------------\19----|
A|------------------------------------------------------------|
E|------------------------------------------------------------|

        G         D/F#           Em           F
e|------------------------------------------------------------|
B|-----3/8-------7-/8\7---(7)/8-8\7-\5-\---5-\-3--------------|
G|-----------------------------------------------4--4--/-5----|
D|------------------------------------------------------------|
A|------------------------------------------------------------|
E|------------------------------------------------------------|

                           C            D
e|------------------------------------------------------------|
B|-----6\5----------------------------------------------------|
G|--5------5----------4-5---7--\--5/7--7\5-/7--5/7--9/--------|
D|------------5\---5------------------------------------------|
A|------------------------------------------------------------|
E|------------------------------------------------------------|

[Verse1 and 2]

    G        D/F#               Em
 1.  If I_  leave__ here ...
%2.Bye, bye ba - by it's been ...
e|------------------------------------------------------------|
B|------------------------------3--/--5-------5--\--3---------|
G|-/12------------------------------------------------4--4----|
D|------------------------------------------------------------|
A|------------------------------------------------------------|
E|------------------------------------------------------------|


   F           C                 D
   would you_ still re ...
   though this feel - ing I  ...
e|------------------------------------------------------------|
B|------------------------------------------------------------|
G|/5------------------4--5-----7--(7)\5-/7--(7)-/-19\17---19--|
D|----------------/5-----------------------------------19-----|
A|------------------------------------------------------------|
E|------------------------------------------------------------|

  G                 D/F#               Em
   For   I   must    be__  ...
   But please don't  take ...
e|------------------------------------------------------------|
B|7/8-------------------------------3-/-5----5-\3-------------|
G|-------------------------------------------------4--4-------|
D|------------------------------------------------------------|
A|------------------------------------------------------------|
E|------------------------------------------------------------|

    F                            C                         D
        'cause there's too man --y plac  ...
         'cause  the  Lord   ...
e|------------------------------------------------------------|
B|------------------------------------------------------------|
G|5--\--4-/5---------(5)\--------------------------5\----7----|
D|----------------------------------2-/5----------------------|
A|------------------------------------------------------------|
E|------------------------------------------------------------|
   
   D
e|------------------------/-----------------------|
B|-----------------------/------------------------|
G|--(7)\5/7\5/6------(7)/---19\17/19\17/19--------|
D|------------------------------------------------|
A|------------------------------------------------|
E|------------------------------------------------|



   G             D/F#                Em                 F 
     But if I   stayed__ here with...
e|------------------------------------------------------------|
B|7/8-------------------------------3-/--5-----5-\3-----------|
G|--------------------------------------------------4--4-/-5--|
D|------------------------------------------------------------|
A|------------------------------------------------------------|
E|------------------------------------------------------------|

            C                   D                           G
    just could - n't  be  ...
e|------------------------------------------------------------|
B|-------------------4---5--7-(7)-\5-/7---7\5-/7--7---9-/-12--|
G|----------2-/-5---------------------------------------------|
D|------------------------------------------------------------|
A|------------------------------------------------------------|
E|------------------------------------------------------------|

             D/F#          Em                          F
    I'm as  free___ as  a bird    ...
e|------------------------------------------------------------|
B|------------------------------------------------------------|
G|-----------------------12\11\9\7-/9\---9-\7-----------------|
D|--------------------------------------------9--9/-/10-------|
A|------------------------------------------------------------|
E|------------------------------------------------------------|

          C                    D
    this bird  you ...
e|-------------------------------------------------------------|
B|-------------------------------------------------------------|
G|-------------------------------------------------------------|
D|------------------10\-----12\10----12----12\10/12\10/12\10/12|
A|-----------3/10-----------------12---------------------------|
E|-------------------------------------------------------------|

     F            C                       D
      And  this  bird you can...
e|-------------------------------------------------------------|
B|-------------------------------------------------------------|
G|7/10 10\9---------------5-/---------/19\17-----19\17----19/17|
D|----------10--------/-----------------------19-------19------|
A|-------------10-\3-/-----------------------------------------|
E|-------------------------------------------------------------|

                       F             C                   D
                         and  this  bird you ...
e|------------------------------------------------------------|
B|-------------22---------------------------------------------|
G|---19\17----/---19\-7/10-10\9--------------4-5------5/7-----|
D|19-------19/------------------10----------------------------|
A|---------------------------------10-(10)\-------------------|
E|------------------------------------------------------------|

-This part comes in the first time. pay no attention to this in the second time-I
                                                                        I
   F              C                    D                                I
    Lord      knows,   I ...G     I
e|---------------------------------------------------------------|  I
B|---------------------------------------------------------------|  I
G|/10-10\9------------------------------------------------7-/-12-|  I
D|---------10---3-/9---10-------12\10-/12--12\10/12\10/12--------|  I
A|----------10\3-------------------------------------------------|  I
E|---------------------------------------------------------------|  I
                                                                        I
           D/F#       Em                               F                I
e|---------------------------------------------------------------|  I
B|---------------------------------------------------------------|  I
G|-11/12-\-11------12\11\9\7/9/11--7/9-9\7---------10-10-10-\9---|  I
D|----------------------------------------9-9--10----------------|  I
A|---------------------------------------------------------------|  I
E|---------------------------------------------------------------|  I
                                                                        I
         C               D                                              I
e|---------------------------------------------------------------|  I
B|------------------------------------17/22----------------------|  I
G|-----------4-5---7\5/7-(7)-/19\17--------19-\-7/12--11/12-11---|  I
D|----10---5------------------------19---------------------------|  I
A|---10-(10)\----------------------------------------------------|  I
E|---------------------------------------------------------------|  I
Then go to second verse...                                              I


    F         C            D
     Lord    knows I ...
e|-----------------------|-----------------------------------------|
B|-----------------------|-----------------------------------------|
G|/10-10\9------------10-|/19\17-19\17-19\17--19\17-19\17-19\17----|
D|--------10--------10---|-----19----19----19-----19----19----19---|
A|----------10\5-/10-----|-----------------------------------------|
E|-----------------------|-------Repeat this section twice---------|

   F                  C           D
    Lord,  help me,  I ...
e|------------------------------------------------------------|
B|-3/6--6\5---------------------------------------------------|
G|----------5-------4--5-------7\5/7\5/7\5/7\5/7\5/7\5/7\5----|
D|------------5-\/5-------------------------------------------|
A|------------------------------------------------------------|
E|------------------------------------------------------------|

    G                Bb              C
             Lord,____________I ...
e|------------------------------------------------------------|
B|------------------------------------------------------------|
G|-12\\\\\\\\\\-----------------------------------------------|
D|-5-5-5-5-5-5-5-5-8-8-8-8-8-8-8-8--10-10-10-10-10-10-10-10-10|
A|-5-5-5-5-5-5-5-5-8-8-8-8-8-8-8-8--10-10-10-10-10-10-10-10-10|
E|-3-3-3-3-3-3-3-3-6-6-6-6-6-6-6-6--8--8--8--8--8--8--8--8--8-|

                          G              Bb              C
               Won't  you  fly__________________________ free__
e|------------------------------------------------------------|
B|------------------------------------------------------------|
G|------------------------------------------------------------|
D|-10-10-10-10-10-10-10--5-5-5-5-5-5-5-5-8-8-8-8-8-8-8-8-10-10|
A|-10-10-10-10-10-10-10--5-5-5-5-5-5-5-5-8-8-8-8-8-8-8-8-10-10|
E|-8--8--8--8--8--8--8---3-3-3-3-3-3-3-3-6-6-6-6-6-6-6-6-8--8-|


   ________________________           bird?      yeah________
e|-------------------------------------------------------15---|
B|----------------------------------------------------15----15|
G|------------------------------------------------------------|
D|-10-10-10-10-10-10-10-10-10-10-10-10-10-10-10-10-10-10-10-10|
A|-10-10-10-10-10-10-10-10-10-10-10-10-10-10-10-10-10-10-10-10|
E|-8--8--8--8--8--8--8--8--8--8--8--8--8--8--8--8--8--8--8--8-|


[Solo]

Repeat two times

e|---------15----------15-----------------------------------|
B|----/18------15--18b----18b-18b---18-15-18--18rp15-18b----|
G|----------------------------------------------------------|
D|----------------------------------------------------------|
A|----------------------------------------------------------|
E|----------------------------------------------------------|

e|-------------------18------18------18---------------------|
B|----18-15-18b-18b-----18b-----18b-----18b-----------------|
G|----------------------------------------------------------|
D|----------------------------------------------------------|
A|----------------------------------------------------------|
E|----------------------------------------------------------|

and

e|-----18-----18-----18-----18-----18-----18-----18-----18--|
B|-18b----18b----18b----18b----18b----18b----18b----18b-----|
G|----------------------------------------------------------|
D|----------------------------------------------------------|
A|----------------------------------------------------------|
E|----------------------------------------------------------|

e|-------18-----18-----18-----18-----18-----18-----18----18-|
B|---18b----18b----18b----18b----18b----18b----18b----18b---|
G|----------------------------------------------------------|
D|----------------------------------------------------------|
A|----------------------------------------------------------|
E|----------------------------------------------------------|

you pick each note

e|----------------------------------------------------------|
B|---15-18-18b-15-18b-15-18-18b-15-18b-15-18-18b-15-18-18b--|
G|----------------------------------------------------------|
D|----------------------------------------------------------|
A|----------------------------------------------------------|
E|----------------------------------------------------------|

e|----------------------------------------------------------|
B|---15-18-18b-15-18b-15-18-18b-15-18b-15-18-18b-15-18-18b--|
G|----------------------------------------------------------|
D|----------------------------------------------------------|
A|----------------------------------------------------------|
E|----------------------------------------------------------|


e|----------------------------------------------------------|
B|---15-18-18b-15-18b-15-18-18b-15-18b-15-18-18b-15-18-18b--|
G|----------------------------------------------------------|
D|----------------------------------------------------------|
A|----------------------------------------------------------|
E|----------------------------------------------------------|


e|----------------------------------------------------------|
B|------18brp15-18b--18b~-----------------------------------|
G|----------------------------------------------------------|
D|----------------------------------------------------------|
A|----------------------------------------------------------|
E|----------------------------------------------------------|

e|----------------------------------------------------------|
B|------15h18p15-----15h18p15-----15h18p15-----15h18p15-----|
G|---17-----------17-----------17-----------17--------------|
D|----------------------------------------------------------|
A|----------------------------------------------------------|
E|----------------------------------------------------------|

e|----------------------------------------------------------|
B|------15h18p15-----15h18p15-----15h18p15-----15h18p15-----|
G|---17-----------17-----------17-----------17--------------|
D|----------------------------------------------------------|
A|----------------------------------------------------------|
E|----------------------------------------------------------|

e|----------------------------------------------------------|
B|------15h18p15-----15h18p15-----15h18p15-----15h18p15-----|
G|---17-----------17-----------17-----------17--------------|
D|----------------------------------------------------------|
A|----------------------------------------------------------|
E|----------------------------------------------------------|

e|----------------------------------------------------------|
B|------15h18p15-----15h18p15-----15h18p15-----15h18p15-----|
G|---17-----------17-----------17-----------17--------------|
D|----------------------------------------------------------|
A|----------------------------------------------------------|
E|----------------------------------------------------------|


e|----------------------------------------------------------|
B|---------15h18p15------15---------------------------------|
G|-----17------------17------15-------------15-----------15-|
D|---------------------------------17p15-17-----17p15-17----|
A|----------------------------------------------------------|
E|----------------------------------------------------------|

e|----------------------------------------------------------|
B|----------------------------------------------------------|
G|----------15--17p15-17p15----15-17p15-17p15-----15--17b---|
D|-------17-----------------17----------------17------------|
A|----------------------------------------------------------|
E|----------------------------------------------------------|


e|----------------------------------------------------------|
B|-----18--18--18--18--18--18--18--18--18--18--18--18--18---|
G|---------17b-----17b-----17b-----17b-----17b-----17b------|
D|----------------------------------------------------------|
A|----------------------------------------------------------|
E|----------------------------------------------------------|

e|----------------------------------------------------------|
B|-----18--18--18--18--18--18--18--18--18--18--18--18--18---|
G|---------17b-----17b-----17b-----17b-----17b-----17b------|
D|----------------------------------------------------------|
A|----------------------------------------------------------|
E|----------------------------------------------------------|


e|----------------------------------------------------------|
B|----18--18--18--------------------------------------------|
G|----17b-17b-17b---17p15-----------------------------------|
D|-------------------------17-------------------------------|
A|----------------------------------------------------------|
E|----------------------------------------------------------|


e|----------------------------------------------------------|
B|----------------------------------------------------------|
G|---15--------------15--------------15---------------------|
D|------17p15-------------17p15-----------17p15-------------|
A|------------17----------------17--------------17----------|
E|----------------------------------------------------------|

e|----------------------------------------------------------|
B|----------------------------------------------------------|
G|---15--------------15-------------------------------------|
D|------17p15-------------17p15-----15h17~------------------|
A|------------17----------------17--------------------------|
E|----------------------------------------------------------|


e|----------------------------------------------------------|
B|----------------------------------------------------------|
G|--------------------------------------15------------------|
D|-----15------15-17p15----15-17p15---------17~-------------|
A|---------17-----------17----------17----------------------|
E|----------------------------------------------------------|

e|----------------------------------------------------------|
B|----------------------------------------------------------|
G|-------------------------------------(15)-----------------|
D|-----15------15-17p15----15-17p15---------17~-------------|
A|---------17-----------17----------17----------------------|
E|----------------------------------------------------------|



e|----------------------------------------------------------|
B|----------------------------------------------------------|
G|----------------------------------------------------------|
D|----15------15--17-17-17p15---------17~-------------------|
A|--------17------------------17----------------------------|
E|----------------------------------------------------------|


e|----------------------------------------------------------|
B|----------------------------------------------------------|
G|----------------------------------------------------------|
D|----15------15-17p15-17p15-17p15-------15h17~-------------|
A|--------17-----------------------17-----------------------|
E|----------------------------------------------------------|

e|----------------------------------------------------------|
B|----------------------------------------------------------|
G|---------------15------------------15---------------15----|
D|------17p15--------17-----17p15--------17---17p15------17-|
A|------------17------------------17----------------17------|
E|----------------------------------------------------------|

e|----------------------------------------------------------|
B|----------------------------------------------------------|
G|---17b-17p15-------17b-17p15-------17b-17p15--------------|
D|-------------17p15-----------17p15----------17p15---------|
A|----------------------------------------------------------|
E|----------------------------------------------------------|

e|----------------------------------------------------------|
B|----------------------------------------------------------|
G|---17b-17p15-------17b-17p15-------17b-17p15--------------|
D|-------------17p15-----------17p15----------17p15---------|
A|----------------------------------------------------------|
E|----------------------------------------------------------|


Hold onto that bend!

e|----------------------------------------------------------|
B|----------------------------------------------------------|
G|----17b-17b-17b-17b-17b-17b-------------------------------|
D|----------------------------------------------------------|
A|----------------------------------------------------------|
E|----------------------------------------------------------|

e|----------------------------------------6----6----6-------|
B|-----6b-6b-6b-6-3-6-6r-3-6b-6-3-6b-6b-6b--6b---6b----6b---|
G|----------------------------------------------------------|
D|----------------------------------------------------------|
A|----------------------------------------------------------|
E|----------------------------------------------------------|

e|------3------3-------------------------------6----6-------|
B|---/6---3-6b---6b-6b-6-3-6-6r-3-6b-6-3-6b-6b---6b---6b----|
G|----------------------------------------------------------|
D|----------------------------------------------------------|
A|----------------------------------------------------------|
E|----------------------------------------------------------|

e|----------------------------------------------------------|
B|-----8b-8b-8b--6-8~----8-6-8~--8-6-8~--8-6-8~--8-6-8~-----|
G|----------------------------------------------------------|
D|----------------------------------------------------------|
A|----------------------------------------------------------|
E|----------------------------------------------------------|

e|-------------------------------------------------6-8------|
B|----8-6-8~--8-6-8~-----8b-8b-8b--6-8~--8-6-8~--8----------|
G|----------------------------------------------------------|
D|----------------------------------------------------------|
A|----------------------------------------------------------|
E|----------------------------------------------------------|

e|-----8rp6-----6--8rp6-------------------------------------|
B|-----------8----------8--6--8~---8-6-8~--8-6-8~-8b-8b-8b--|
G|----------------------------------------------------------|
D|----------------------------------------------------------|
A|----------------------------------------------------------|
E|----------------------------------------------------------|

e|----------------------------------------------------------|
B|----------------------------------------------------------|
G|-------12-12--12~------14p12------12-12---12~-----14p12---|
D|----14-----14------14---------14------14------14----------|
A|----------------------------------------------------------|
E|----------------------------------------------------------|

e|----------------------------------------------------------|
B|----------------------------------------------------------|
G|-------12-12----12~-----12~-------------------------------|
D|----14------14------14------------------------------------|
A|----------------------------------------------------------|
E|----------------------------------------------------------|


Maybe not 100%, but hey, gimme some credit, i got you this far!

e|----------------(6)---------------6-----------------------|
B|--------6-8p6---6-8p6---6-8p6-------8p6-------------------|
G|-----/7-------7-------7-------7---------7-----------------|
D|----------------------------------------------------------|
A|----------------------------------------------------------|
E|----------------------------------------------------------|

e|----------------(6)---------------6-----------------------|
B|--------6-8p6---6-8p6---6-8p6-------8p6-------------------|
G|------7-------7-------7-------7---------7-----------------|
D|----------------------------------------------------------|
A|----------------------------------------------------------|
E|----------------------------------------------------------|

e|----------------(6)---------------6-----------------------|
B|--------6-8p6---6-8p6---6-8p6-------8p6-------------------|
G|------7-------7-------7-------7---------7-----------------|
D|----------------------------------------------------------|
A|----------------------------------------------------------|
E|----------------------------------------------------------|


e|---15----------15----------15----------15-----------------|
B|------18p15-------18p15-------18p15-------18p15-----------|
G|------------17----------17----------17----------17--------|
D|----------------------------------------------------------|
A|----------------------------------------------------------|
E|----------------------------------------------------------|

e|---15----------15----------15----------15-----------------|
B|------18p15-------18p15-------18p15-------18p15-----------|
G|------------17----------17----------17----------17--------|
D|----------------------------------------------------------|
A|----------------------------------------------------------|
E|----------------------------------------------------------|

e|---15----------15----------15----------15-----------------|
B|------18p15-------18p15-------18p15-------18p15-----------|
G|------------17----------17----------17----------17--------|
D|----------------------------------------------------------|
A|----------------------------------------------------------|
E|----------------------------------------------------------|

e|---15----------15----------15----------15-----------------|
B|------18p15-------18p15-------18p15-------18p15-----------|
G|------------17----------17----------17----------17--------|
D|----------------------------------------------------------|
A|----------------------------------------------------------|
E|----------------------------------------------------------|

e|---15----------15----------15----------15-----------------|
B|------18p15-------18p15-------18p15-------18p15-----------|
G|------------17----------17----------17----------17--------|
D|----------------------------------------------------------|
A|----------------------------------------------------------|
E|----------------------------------------------------------|


e|---15----------15----------15----------15-----------------|
B|------18p15-------18p15-------18p15-------18p15-----------|
G|------------17----------17----------17----------17--------|
D|----------------------------------------------------------|
A|----------------------------------------------------------|
E|----------------------------------------------------------|


e|---15----------15----------15----------15-----------------|
B|------18p15-------18p15-------18p15-------18p15-----------|
G|------------17----------17----------17----------17--------|
D|----------------------------------------------------------|
A|----------------------------------------------------------|
E|----------------------------------------------------------|


e|---15----------15----------15----------15-----------------|
B|------18p15-------18p15-------18p15-------18p15-----------|
G|------------17----------17----------17----------17--------|
D|----------------------------------------------------------|
A|----------------------------------------------------------|
E|----------------------------------------------------------|


e|---15----------15----------15----------15-----------------|
B|------18p15-------18p15-------18p15-------18p15-----------|
G|------------17----------17----------17----------17--------|
D|----------------------------------------------------------|
A|----------------------------------------------------------|
E|----------------------------------------------------------|


e|---15----------15----------15----------15-----------------|
B|------18p15-------18p15-------18p15-------18p15-----------|
G|------------17----------17----------17----------17--------|
D|----------------------------------------------------------|
A|----------------------------------------------------------|
E|----------------------------------------------------------|


e|---15----------15----------15----------15-----------------|
B|------18p15-------18p15-------18p15-------18p15-----------|
G|------------17----------17----------17----------17--------|
D|----------------------------------------------------------|
A|----------------------------------------------------------|
E|----------------------------------------------------------|


e|---18p15----18p15----18p15----18p15----18p15----18p15-----|
B|---------15-------15-------15-------15-------15-------15--|
G|----------------------------------------------------------|
D|----------------------------------------------------------|
A|----------------------------------------------------------|
E|----------------------------------------------------------|

e|---18p15----18p15----18p15----18p15----18p15----18p15-----|
B|---------15-------15-------15-------15-------15-------15--|
G|----------------------------------------------------------|
D|----------------------------------------------------------|
A|----------------------------------------------------------|
E|----------------------------------------------------------|

e|---13p10----13p10----13p10----13p10----13p10----13p10-----|
B|---------10-------10-------10-------10-------10-------10--|
G|----------------------------------------------------------|
D|----------------------------------------------------------|
A|----------------------------------------------------------|
E|----------------------------------------------------------|


(6 :56)

e|----15--15--15--15--15--15--15-(15-15-15-15-15-15)--------|
B|----18b-18b-18b-18b-18b-18b-18r-18-18-18-15-15-15---------|
G|----------------------------------------------------------|
D|----------------------------------------------------------|
A|----------------------------------------------------------|
E|----------------------------------------------------------|

e|----------------------------------------------------------|
B|---15--15--15--15-(15--15-15-15)--------------------------|
G|---17b-17b-17b-17b-17r-17-17-17-----15--------------------|
D|---------------------------------17----17~----------------|
A|----------------------------------------------------------|
E|----------------------------------------------------------|

e|----------------------------------------------------------|
B|----------------------------------------------------------|
G|-----------------15------------------------15-------------|
D|-------17p15---------17~---------17p15---------17~--------|
A|-------------17-------------------------17----------------|
E|----------------------------------------------------------|


e|----------------------------------------------------------|
B|----------------------------------------------------------|
G|---17b-17p15-------17b-17p15-------17b-17p15--------------|
D|-------------17p15-----------17p15----------17p15---------|
A|----------------------------------------------------------|
E|----------------------------------------------------------|

e|----------------------------------------------------------|
B|----------------------------------------------------------|
G|---17b-17p15-------17b-17p15-------17b-17p15--------------|
D|-------------17p15-----------17p15----------17p15---------|
A|----------------------------------------------------------|
E|----------------------------------------------------------|


e|----------------------------------------------------------|
B|------15-18-----------------------------------------------|
G|-------------17br-15-17------15--12~--------12~-----------|
D|-------------------------17-------------14----------------|
A|----------------------------------------------------------|
E|----------------------------------------------------------|


e|----------------------------------------------------------|
B|----------------------------------------------------------|
G|----12--14b--12-14------12-14-12------12~-----------------|
D|--14----------------14------------14----------------------|
A|----------------------------------------------------------|
E|----------------------------------------------------------|

e|----------------------------------------------------------|
B|--------15br----------------------------------------------|
G|--------------14br--12-14-12-14-12------12~---------------|
D|------------------------------------14--------------------|
A|----------------------------------------------------------|
E|----------------------------------------------------------|


And we hear multiple guitars here, play this for effect


Repeat four times...

e|----------------------------------------------------------|
B|----------------------------------------------------------|
G|------12-------12~------12-------12~--------12-14--12~----|
D|-----------14----------------14---------14----------------|
A|----------------------------------------------------------|
E|----------------------------------------------------------|

e|----------------------------------------------------------|
B|-----15----15----15----15---------------------------------|
G|-----14b---14b---14b---14b--------------------------------|
D|----------------------------------------------------------|
A|----------------------------------------------------------|
E|----------------------------------------------------------|


Then (7:47)

e|----------------------------------------------------------|
B|---18-----18-----18-----18-----18-----18-----18-----18----|
G|------17b----17b----17b----17b----17b----17b----17b-------|
D|----------------------------------------------------------|
A|----------------------------------------------------------|
E|----------------------------------------------------------|

e|----------------------------------------------------------|
B|---18-----18-----18-----18-----18-----18-----18-----18----|
G|------17b----17b----17b----17b----17b----17b----17b-------|
D|----------------------------------------------------------|
A|----------------------------------------------------------|
E|----------------------------------------------------------|

e|---18-----18-----18-----18-----18-----18-----18-----18----|
B|------18b----18b----18b----18b----18b----18b----18b-------|
G|----------------------------------------------------------|
D|----------------------------------------------------------|
A|----------------------------------------------------------|
E|----------------------------------------------------------|

e|-------18-----18-----18-----18-----18-----18-----18-------|
B|---18b----18b----18b----18b----18b----18b----18b----------|
G|----------------------------------------------------------|
D|----------------------------------------------------------|
A|----------------------------------------------------------|
E|----------------------------------------------------------|

e|-------18-----18-----18-----18-----18-----18-----18-------|
B|---18b----18b----18b----18b----18b----18b----18b----------|
G|----------------------------------------------------------|
D|----------------------------------------------------------|
A|----------------------------------------------------------|
E|----------------------------------------------------------|

e|--22-----22-----22-----22-----22-----22-----22-----22-----|
B|-----22b----22b----22b----22b----22b----22b----22b----22b-|
G|----------------------------------------------------------|
D|----------------------------------------------------------|
A|----------------------------------------------------------|
E|----------------------------------------------------------|

e|--22-----22-----22-----22-----22-----22-----22-----22-----|
B|-----22b----22b----22b----22b----22b----22b----22b----22b-|
G|----------------------------------------------------------|
D|----------------------------------------------------------|
A|----------------------------------------------------------|
E|----------------------------------------------------------|

e|--22-----22-----22-----22-----22-----22-----22-----22-----|
B|-----22b----22b----22b----22b----22b----22b----22b----22b-|
G|----------------------------------------------------------|
D|----------------------------------------------------------|
A|----------------------------------------------------------|
E|----------------------------------------------------------|


(8:12)The most amazing riff in the song.

e|----------------------------------------------------------|
B|---15-----------------------------------------------------|
G|------15b----15----17br17p15-17----15-17-15----17----15---|
D|----------17----17--------------17----------17----17------|
A|----------------------------------------------------------|
E|----------------------------------------------------------|

e|----------------------------------------------------------|
B|----------------------------------------------------------|
G|------15-17-15----17----15b-------------------------------|
D|---17----------17----17-----17~---------------------------|
A|----------------------------------------------------------|
E|----------------------------------------------------------|

e|---15----------15----------15----------15-----------------|
B|------18p15-------18p15-------18p15-------18p15-----------|
G|------------17----------17----------17----------17--------|
D|----------------------------------------------------------|
A|----------------------------------------------------------|
E|----------------------------------------------------------|

e|---15----------15----------15----------15-----------------|
B|------18p15-------18p15-------18p15-------18p15-----------|
G|------------17----------17----------17----------17--------|
D|----------------------------------------------------------|
A|----------------------------------------------------------|
E|----------------------------------------------------------|

e|---15----------15----------15----------15-----------------|
B|------18p15-------18p15-------18p15-------18p15-----------|
G|------------17----------17----------17----------17--------|
D|----------------------------------------------------------|
A|----------------------------------------------------------|
E|----------------------------------------------------------|

e|---15----------15----------15----------15-----------------|
B|------18p15-------18p15-------18p15-------18p15-----------|
G|------------17----------17----------17----------17--------|
D|----------------------------------------------------------|
A|----------------------------------------------------------|
E|----------------------------------------------------------|

e|---15----------15----------15----------15-----------------|
B|------18p15-------18p15-------18p15-------18p15-----------|
G|------------17----------17----------17----------17--------|
D|----------------------------------------------------------|
A|----------------------------------------------------------|
E|----------------------------------------------------------|

e|---15----------15----------15----------15-----------------|
B|------18p15-------18p15-------18p15-------18p15-----------|
G|------------17----------17----------17----------17--------|
D|----------------------------------------------------------|
A|----------------------------------------------------------|
E|----------------------------------------------------------|


Then sorta this, differ it to suit you...

e|----15--15--15--15--15--15--15-(15-15-15-15-15-15)--------|
B|----18b-18b-18b-18b-18b-18b-18r-18-18-18-15-15-15---------|
G|----------------------------------------------------------|
D|----------------------------------------------------------|
A|----------------------------------------------------------|
E|----------------------------------------------------------|

e|----------------------------------------------------------|
B|---15--15--15--15-(15--15-15-15)--------------------------|
G|---17b-17b-17b-17b-17r-17-17-17-----15--------------------|
D|---------------------------------17----17~----------------|
A|----------------------------------------------------------|
E|----------------------------------------------------------|

Then i think you should make some of this up

Then

(8:57)


e|----------------------------------------------------------|
B|---18b-18-15----------------------------------------------|
G|-------------17br-15-17~--15------17----------------------|
D|------------------------------17~-------------------------|
A|----------------------------------------------------------|
E|----------------------------------------------------------|

e|----------------------------------------------------------|
B|----------------------------------------------------------|
G|-----3---5----3-5-3---3-5-3b------------------------------|
D|-------5---5--------5--------5~---------------------------|
A|----------------------------------------------------------|
E|----------------------------------------------------------|


End

e|----------------------------------------------------------|
B|----------------------------------------------------------|
G|---------------5-7h8p7p5--7-8--10--10b~-------------------|
D|---5~--5-7-8----------------------------------------------|
A|----------------------------------------------------------|
E|----------------------------------------------------------|


there are two ways of playing the ending. you choose

1

e|----------------------------------------------------------|
B|----------------------------------------------------------|
G|----10-8-7-7h8h10p8p7/5-7p5/3-3h5h7p5p3/2-2h3h5p3p2p0-----|
D|------------------------------------------------------3-2-|
A|----------------------------------------------------------|
E|----------------------------------------------------------|

2

e|----------------------------------------------------------|
B|----------------------------------------------------------|
G|---10-8-7-7h8h10p8p7/5-7p5/3-3h5p3/2-2h3h5p3p2p0----------|
D|--------------------------------------------------3-2~----|
A|----------------------------------------------------------|
E|----------------------------------------------------------|


e|----------------------------------------------------------|
B|----------------------------------------------------------|
G|---------5-7h8p7-5-7-8-10-10brp8/7-8p7--------------------|
D|-----7-8--------------------------------8-10bbb~----------|
A|----------------------------------------------------------|
E|----------------------------------------------------------|


***************************************************************

|h   hammer on
|p   pull off
|b   bend string up
|r   release bend
|/   slide up
|\   slide down
|~   vibrato
|t   right hand tap
|x   play 'note' with heavy damping

***************************************************************
Suggest correction
What's this?
You can suggest a correction to this tab. Community and Mods will review your correction and vote to approve or reject it.
comments
print report bad tab
41 comments total. Showing first comments.
-1 reply
jhonen vasquez 147 wrote on August 9 2003, 12:00 am

dude ur f***in messed up u got issuesgood tab though

+2 reply
thunderstruck91 16 wrote on February 27 2005, 12:00 am

sweet tab... but its gonna take me forever to learn in lol

+1 reply
van-halen rock 110 wrote on April 20 2006, 12:31 pm

this tab rocks im half way through the solo and my finger have gone purlple lol

guest
You may want to rate the tab now too:
select rating
Please do not post tabs as comments. Select "correction" instead!