Oops, an error
Loading. Please wait.

Free Bird Tab

version 4
version 4
843,316 views 912 this week
200 commentsread comments
1 2 3 4 5
excellent!
x 741
add to favorites
launch autoscroll
font size
0
reset
how to read this tab
guitar tuner
Autoscroll
slow
fast
+/-
esc
set tempo
stop
Help us to improve Ultimate-Guitar.com Take our survey!
×
Author
Song:Free Bird
Artist:Lynyrd Skynyrd
Tabbed By:Will Cioffi


Under the tabs is the chords that is played

[Intro Pt.1]

E|--3------0--0----1--0-----3--2--0--2-|
B|--0------0--0----1--1-----3--3--3--3-|  x2
G|--0------0--0----2--0-----2--2--2--2-|
D|--0------2--2----3--2-----0--0--0--0-|
A|--2------2--2----3--3----------------|
E|--3--2---0--0----1-------------------|
   G      Em      F  C     D


[Intro Pt.2]  **Use a Slide**

E|-------------------------------|
B|--3>8--7>8--7--8---------------|
G|-------------------------------|
D|-------------------------------|
A|-------------------------------|
E|-------------------------------|
    G         D/F#
E|--------------------------------------------------------------------------------|
B|--8>7>5>3>5>7--5>3------------6-6-6-5-------------------------------------------|
G|--------------------4--4>5-------------5-----------4-5--------------------------|
D|------------------------------------------5>0--2>5------------------------------|
A|--------------------------------------------------------------------------------|
E|--------------------------------------------------------------------------------|
   Em                            F          C

E|------------------------------------------------------------------|
B|--3>2>3------15>14---->15---7>8--7>8--7>8--8--8>7>5>0--5>3--------|
G|-------------------14--------------------------------------4-4>5--|
D|------------------------------------------------------------------|
A|------------------------------------------------------------------|
E|------------------------------------------------------------------|
   D                           G       D/F#       Em

E|--------------------------------------------------------------------------------------|
B|-6-6-6-5----------------3>2>3---3>2---3---5>8-----------------------------------------|
G|---------5----------4-5-------------2-------------------------------------------------|
D|-----------5>0--2>5-------------------------------------------------------------------|
A|--------------------------------------------------------------------------------------|
E|--------------------------------------------------------------------------------------|


E|--------------------------------------------------------|
B|-----------------------------3>5----5>3-----------------|
G|----------------------------------------4-4>5-----------|
D|--------------------------------------------------------|
A|--------------------------------------------------------|
E|--------------------------------------------------------|
                     D/F#    Em
    1.If I leave here  tom___orow
    2.Bye Bye its been sweet love

E|------------------------------------------------------------------------------|
B|-----------------------3>2>3>15----15>13-------14>15>8------------------------|
G|----------------4--5---------------------13>14--------------------------------|
D|-----------0>5----------------------------------------------------------------|
A|------------------------------------------------------------------------------|
E|------------------------------------------------------------------------------|
     F            C                   D
   1.Would you still remember me?
   2.And though this feeling I cant change

E|-----------------------------------|
B|-7>8-------------------------------|
G|-----------------------------------|
D|-----------------------------------|
A|-----------------------------------|
E|-----------------------------------|
    G     D/F#
  1.For I must be travelling on
  2.Please Dont take it so


E|--------------------------------------------|
B|--3>5-----5>3-------------------------------|
G|--------------4-4>5>4>5>0-------------------|
D|--------------------------------------------|
A|--------------------------------------------|
E|--------------------------------------------|
    Em
 1. Now
 2.badly

E|----------------------------------------------------------|
B|---------------------------3>2>3>2>3>15-15>14>15>14>15>8--|
G|----------------------------------------------------------|
D|--------------------4--5----------------------------------|
A|---------------0>5----------------------------------------|
E|----------------------------------------------------------|
    F           C              D
  1.Cause theres to many places i've got to see
  2.The Lord knows I'm to blame

E|--------------------------------------------------------------------------|
B|--7>8-------------------------3>5----5>3----------------------------------|
G|----------------------------------------4-4>5>4>5>0-----------------------|
D|--------------------------------------------------------------------------|
A|--------------------------------------------------------------------------|
E|--------------------------------------------------------------------------|
    G      D/F#    Em
 1.But if I stay here with you girl
 2.And if I stayed here with you now

E|----------------------------------------------------------------------------------------|
B|-------------------3>2>3>15---15>14----15>14-15>14-14>15>8------------------------------|
G|-------------4-5--------------------14--------------------------------------------------|
D|---------0>5----------------------------------------------------------------------------|
A|----------------------------------------------------------------------------------------|
E|----------------------------------------------------------------------------------------|
    C
1.Things just couldn't be the same
2.Things just couldn't be the same

E|-----------------------------------|
B|--7>8------------------------------|
G|-----------------------------------|
D|-----------------------------------|
A|-----------------------------------|
E|-----------------------------------|
    G              D/F#
  1.Cause i'm free as a bird
  2.Cause I'm free as a bird

E|--------------------------------------------------------------------|
B|---8>7>5>0----5>3-------------------------3>2>3----3>2>3>2>3>2>3>0--|
G|-------------------4-4>5-------------4-5----------------------------|
D|---------------------------------0>5--------------------------------|
A|--------------------------------------------------------------------|
E|--------------------------------------------------------------------|
   Em                      F              C         D
  1.now,                    and this bird you cannon change  oh
  2.now                     and this bird you'll never change oh

E|-----------------------------------------------------------------------------|
B|--3>6---6>5---------------------15>14----15>14----14>15----14>15----14>15----|
G|------------5--------5----------------14-------14------14-------14-------14--|
D|--------------5>0>5-----5>12-------------------------------------------------|
A|-----------------------------------------------------------------------------|
E|-----------------------------------------------------------------------------|
    F                  C          D
    and this bird you cannot change.


E|---------------------------------|
B|--14>15----14>15>8---------------|
G|--------14-----------------------|
D|---------------------------------|
A|---------------------------------|
E|---------------------------------|


E|---------------------------------------------------------------------------------------|
B|--5>6--6>5---------------------------------------6>5-------------6>15------------------|
G|-----------5--------4-5>2----5>7---2>10--------------5--------5------------------------|
D|-------------5>0>5-------------------------------------5>0>5---------------------------|
A|---------------------------------------------------------------------------------------|
E|---------------------------------------------------------------------------------------|
   F          C                D                   F          C
      And this bird you cannot change              Lord knows I can't change

E|----------------------------------------|
B|--6>5----------6>15>14>15>14>15>8-------|
G|------5------5---------------------  <--|Play this after "Lord knows
D|--------5>05----------------------------|   I cant change" when you play intro pt2
A|----------------------------------------|   for the first time. Play this after
E|----------------------------------------|   "Lord Knows I cant change" after you
    D                                  played intro pt2 for the second time.
                                                                      |
E|--------------------------------------------------------            --------|
B|----14>15-----14>15----14>15----14>15------12>15>8--------------------------|
G|-14--------14-------14-------14-------14----------------            --------|
D|--------------------------------------------------------  <-----------------|
A|----------------------------------------------------------------------------|
E|----------------------------------------------------------------------------|    x2


E|----------------------------------------------------------------------|
B|---5>6--6>5------------------3>2>3>2--3--2--3--2-3--2-3-2--3-2-3-2>8--|
G|------------5--------4--5---------------------------------------------|
D|--------------5>0>5---------------------------------------------------|
A|----------------------------------------------------------------------|
E|----------------------------------------------------------------------|
   F            C               D
     Lord  help me I can't    change_________________________________

E|------------------------------------------------------------------------------|
B|-3--3--3--3--3--3--3--3--5--5--5--5--5--5--5--5--5--5--5--5--5--5--5--5--5--5-|
G|-3--3--3--3--3--3--3--3--5--5--5--5--5--5--5--5--5--5--5--5--5--5--5--5--5--5-|
D|-3--3--3--3--3--3--3--3--5--5--5--5--5--5--5--5--5--5--5--5--5--5--5--5--5--5-|
A|-1--1--1--1--1--1--1--1--3--3--3--3--3--3--3--3--3--3--3--3--3--3--3--3--3--3-|
E|------------------------------------------------------------------------------|
  Bb                         C
  Lord_________       I     can't    change_____________          won't you


E|--3--3--3--3--3--3--3--3---------------------------------------------------|
B|--3--3--3--3--3--3--3--3--3--3--3--3--3--3--3--3---5--5--5--5--5--5--5--5--|
G|--4--4--4--4--4--4--4--4--3--3--3--3--3--3--3--3---5--5--5--5--5--5--5--5--|
D|--5--5--5--5--5--5--5--5--3--3--3--3--3--3--3--3---5--5--5--5--5--5--5--5--|
A|--5--5--5--5--5--5--5--5--1--1--1--1--1--1--1--1---3--3--3--3--3--3--3--3--|
E|--3--3--3--3--3--3--3--3---------------------------------------------------|
   G                        Bb                        C

   
[Solo]

e|------------------|------------------|--------------------------------|
B|------------------|------------------|--3------------3---3---3-3------|
G|------------------|------------------|--4------------3-x-3-x-3-3--x-x-|
D|------------------|------------------|--5--x-------x-3-x-3-x-3-3--x-x-|
A|------------------|------------------|--5--x---0-2-x-1-x-1-x-1-1--x-x-|
E|------------------|------------------|--3--x-3-----x------------------|

e|-----------------------------|--------------------------------|
B|--5--x-----------------------|--3------------3---3---3-3------|
G|--5--x-----------------------|--4------------3-x-3-x-3-3--x-x-|
D|--5--x-----5----5----5----5--|--5--x-------x-3-x-3-x-3-3--x-x-|
A|--3----5h7----7----7----7----|--5--x---0-2-x-1-x-1-x-1-1--x-x-|
E|-----------------------------|--3--x-3-----x------------------|

e|-----------------------------15----|------------------------------------------|
B|--5----5-5----5---5---5---------15-|--18b18b18b-18b-18-15-18-18r-15-18b-18-15-|
G|--5--x-5-5--x-5-x-5-x-5-x-15-------|------------------------------------------|
D|--5--x-5-5--x-5-x-5-x-5-x----------|------------------------------------------|
A|--3--x-3-3--x-3-x-3-x-3-x----------|------------------------------------------|
E|-----------------------------------|------------------------------------------|

e|---------18-----18-----18----18-------15----|
B|--18b18b----18b----18b----18b---18b------15-|
G|-----------------------------------15-------|
D|--------------------------------------------|
A|--------------------------------------------|
E|--------------------------------------------|

e|------------------------------------------|
B|--18b18b18b-18b-18-15-18-18r-15-18b-18-15-|
G|------------------------------------------|
D|------------------------------------------|
A|------------------------------------------|
E|------------------------------------------|

e|---------18-----18-----18----18----18----18-|
B|--18b18b----18b----18b----18b---18b---18b---|
G|--------------------------------------------|
D|--------------------------------------------|
A|--------------------------------------------|
E|--------------------------------------------|

e|-----18----18----18----18----18----18----18----18-|
B|--18~---18~---18~---18~---18~---18~---18~---18~---|
G|--------------------------------------------------|
D|--------------------------------------------------|
A|--------------------------------------------------|
E|--------------------------------------------------|

e|-----18----18----18----18----18----18-----------|
B|--18~---18~---18~---18~---18~---18~---18~-18-15-|
G|------------------------------------------------|
D|------------------------------------------------|
A|------------------------------------------------|
E|------------------------------------------------|

e|--------------------------------------------------------------------------------|
B|--18-15-18-18-15-18-18b15-18-18-15-18-18b15-18-18-15-18-18b15-18-18-15-18-18b15-|
G|--------------------------------------------------------------------------------|
D|--------------------------------------------------------------------------------|
A|--------------------------------------------------------------------------------|
E|--------------------------------------------------------------------------------|

e|------------------------------------------------------------------------------|
B|--15-18-18-15-18-18-15-18-18b15-18-18b15-18-18r15-18-18r15-18-18r15-18-18r15--|
G|------------------------------------------------------------------------------|
D|------------------------------------------------------------------------------|
A|------------------------------------------------------------------------------|
E|------------------------------------------------------------------------------|

e|--13b-13b-13b-------------------------------------------------------------|
B|--------------18p15----15-18p15----15-18p15----15-18p15----15-18p15----15-|
G|--------------------17----------17----------17----------17----------17----|
D|--------------------------------------------------------------------------|
A|--------------------------------------------------------------------------|
E|--------------------------------------------------------------------------|

e|---------------------------------------------------------------------------------|
B|--18p15----15-18p15----15-18p15----15-18p15----15-18p15----15-18p15----15--------|
G|--------17----------17----------17----------17----------17----------17----17--15-|
D|---------------------------------------------------------------------------------|
A|---------------------------------------------------------------------------------|
E|---------------------------------------------------------------------------------|

e|--------------------------------------------------------------------------|
B|-----------------------------------------------------------------18----18-|
G|-----15~---------15~---15-17p15-17p15----15-17p15----15-17p15-17b---17b---|
D|--17----17p15-17----17----------------17----------17----------------------|
A|--------------------------------------------------------------------------|
E|--------------------------------------------------------------------------|

e|--------------------------------------------------|
B|-----18----18----18----18----18----18----18----18-|
G|--17b---17b---17b---17b---17b---17b---17r---17r---|
D|--------------------------------------------------|
A|--------------------------------------------------|
E|--------------------------------------------------|

e|-----------------------------------------------------------------|
B|-----18----18----18----18----18----18----18----18----18----18----|
G|--17r---17r---17r---17r---17r---17r---17r---17r---17r---17r---17r|
D|-----------------------------------------------------------------|
A|-----------------------------------------------------------------|
E|-----------------------------------------------------------------|

e|-----------------------------------------------------|
B|--18-18-18-18-18-18-18-18-18-18-18-18-18-18----------|
G|--17-17b17b17-17b17b17-17b17b17-17b17b17-17b---------|
D|--------------------------------------------17p15----|
A|--------------------------------------------------17-|
E|-----------------------------------------------------|

e|-----------------------------------------------------------------|
B|-----------------------------------------------------------------|
G|--15----------15----------15----------15----------15----------15-|
D|-----17p15-------17p15-------17p15-------17p15-------17p15-------|
A|-----------17----------17----------17----------17----------17----|
E|-----------------------------------------------------------------|

e|----------------------------------------------------------------------------|
B|----------------------------------------------------------------------------|
G|------------------------------------15--------------------------------------|
D|--17--17----15-17p15-17p15-17p15-------17--17----15-17p15-17p15-17p15----15-|
A|---------17----------------------17-----------17----------------------17----|
E|----------------------------------------------------------------------------|

e|----------------------------------------------------------------------------|
B|----------------------------------------------------------------------------|
G|----------------------------------------------------------------------------|
D|--17--17----15-17p15-17p15-17p15----15-17--17----15-17p15-17p15-17p15----15-|
A|---------17----------------------17-----------17----------------------17----|
E|----------------------------------------------------------------------------|

e|---------------------------------------------------|
B|---------------------------------------------------|
G|------------15-----------15-----------15--------17b|
D|--17--15-------17--15-------17--15-------17--15----|
A|---------17-----------17-----------17--------------|
E|---------------------------------------------------|

e|--------------------------------------------------------------------------------|
B|--------------------------------------------------------------------------------|
G|--17-15-------17b17-15-------17b17-15-------17b17-15-------17b17-15-------17b17-|
D|--------17-15----------17-15----------17-15----------17-15----------17-15-------|
A|--------------------------------------------------------------------------------|
E|--------------------------------------------------------------------------------|

e|---------------------------------------------------------------|
B|---------------------------------------------------------------|
G|--------17b17-15-------17b17-15-------17b17b-17b17-17-15-15-15-|
D|--17-15----------17-15----------17-15--------------------------|
A|---------------------------------------------------------------|
E|---------------------------------------------------------------|

e|--------------------------------------------|
B|--------------------------------------------|
G|--------------------------------------------|
D|--17----17----15b-15----15-15r----15b-15----|
A|-----------17--------17--------17--------17-|
E|-----19-------------------------------------|

e|---------------------------------------------|
B|---------------------------------------------|
G|---------15-----15-----15----15--------------|
D|--15b15b----15b----15b----15b---15b----17----|
A|------------------------------------------17-|
E|------------------------------------18-------|

e|------------------------------------------|
B|------------------------------------------|
G|------------------------------------------|
D|--15-15b15b-15b-15----15-15r----15b-15----|
A|-------------------17--------17--------17-|
E|------------------------------------------|

e|--------------------------------------|
B|--------------------------------------|
G|---------15-----15--------------------|
D|--15b15b----15b----15b-15b-15b-15b-15-|
A|--------------------------------------|
E|--------------------------------------|

e|------------------------------------------|
B|------------------------------------------|
G|-------------------15--------15--------15-|
D|--17--17-15-17--17-15-17--17-15-17--17-15-|
A|------------------------------------------|
E|------------------------------------------|

e|----------------------------------------|
B|----------------------------------------|
G|---------15--------15-------------------|
D|--17--17-15-17--17-15-17-17b-17b-17b-15-|
A|----------------------------------------|
E|----------------------------------------|

e|--------------------------------------------------------|
B|--------------------------------------------------------|
G|---------15--------15-16-17-17r15--------15-16-17-17r15-|
D|--17--17-15-17--17----------------17--17----------------|
A|--------------------------------------------------------|
E|--------------------------------------------------------|

e|----------------------------------------|
B|----------------------------------------|
G|----------------------------------------|
D|--17--17-15-17--17-15-17-17b-17b-17b-14-|
A|----------------------------------------|
E|----------------------------------------|

e|-------------------------------------------|
B|-------------------------------------------|
G|-----------------------------------15b-15--|
D|--17-----17--17-19p17----17-----17---------|
A|------19--------------19-----19------------|
E|-------------------------------------------|

e|---------------------------------------3-6---|
B|-------------------------------------6-----8-|
G|-----15--------------------------------------|
D|--17----17-15-17-15b-15b-15b-15b-15b---------|
A|---------------------------------------------|
E|---------------------------------------------|

e|--5p3---3-6p3-5p3---3-6p3-5p3---3-6p3-5p3---3-6p3-5p3---3-6p3-5p3-|
B|------6-----------6-----------6-----------6-----------6-----------|
G|------------------------------------------------------------------|
D|------------------------------------------------------------------|
A|------------------------------------------------------------------|
E|------------------------------------------------------------------|

e|----3-6p3-5p3---3-6p3-5p3---3-6p3-5p3---3-6p3-5p3/----15-|
B|--6-----------6-----------6-----------6------------------|
G|---------------------------------------------------------|
D|---------------------------------------------------------|
A|---------------------------------------------------------|
E|---------------------------------------------------------|

e|-----------15----------15----------15----------15----------15----------15-------|
B|--18p15-------18p15-------18p15-------18p15-------18p15-------18p15-------18p15-|
G|--------17----------17----------17----------17----------17----------17----------|
D|--------------------------------------------------------------------------------|
A|--------------------------------------------------------------------------------|
E|--------------------------------------------------------------------------------|

e|-----------15----------15----------15----------15----------15----------15-------|
B|--18p15-------18p15-------18p15-------18p15-------18p15-------18p15-------18p15-|
G|--------17----------17----------17----------17----------17----------17----------|
D|--------------------------------------------------------------------------------|
A|--------------------------------------------------------------------------------|
E|--------------------------------------------------------------------------------|

e|-----------15----------15----------15----------15----------15----------15-------|
B|--18p15-------18p15-------18p15-------18p15-------18p15-------18p15-------18p15-|
G|--------17----------17----------17----------17----------17----------17----------|
D|--------------------------------------------------------------------------------|
A|--------------------------------------------------------------------------------|
E|--------------------------------------------------------------------------------|

e|-----------15----------15----------15----------15----------15----------15-------|
B|--18p15-------18p15-------18p15-------18p15-------18p15-------18p15-------18p15-|
G|--------17----------17----------17----------17----------17----------17----------|
D|--------------------------------------------------------------------------------|
A|--------------------------------------------------------------------------------|
E|--------------------------------------------------------------------------------|

e|-----18p15----18p15----18p15----18p15----18p15----18p15----18p15----18p15----18--|p
B|--15-------15-------15-------15-------15-------15-------15-------15-------15-----|
G|---------------------------------------------------------------------------------|
D|---------------------------------------------------------------------------------|
A|---------------------------------------------------------------------------------|
E|---------------------------------------------------------------------------------|

e|---------------------------------------------------------------------------------|
B|-----18p15----18p15----18p15----18p15----18p15----18p15----18p15----18p15----18--|p
G|--15-------15-------15-------15-------15-------15-------15-------15-------15-----|
D|---------------------------------------------------------------------------------|
A|---------------------------------------------------------------------------------|
E|---------------------------------------------------------------------------------|

e|--13b--13b--13b13b13r-13-13-13----------|
B|-------------------------------15-15-15-|
G|----------------------------------------|
D|----------------------------------------|
A|----------------------------------------|
E|----------------------------------------|

e|----------------------------------------|
B|--13b--13b--13b13b13r-13-13-13-11-11-11-|
G|----------------------------------------|
D|----------------------------------------|
A|----------------------------------------|
E|----------------------------------------|

e|--------6---6---6-----6-------6---6---6-----6-|
B|--8--8----8---8-8-6-----8--8----8---8-8-6-----|
G|--------------------7---------------------7---|
D|----------------------------------------------|
A|----------------------------------------------|
E|----------------------------------------------|

e|-----6-----6----6-----6----6-----6-------|----------------------------------|
B|--8--8-6-----8--8-6-----8--8-6-----8-----|--8----8--8-10---8----8--8-10p8---|
G|---------7----------7----------7-------9-|-----9---------9----9-----------9-|
D|-----------------------------------------|----------------------------------|
A|-----------------------------------------|----------------------------------|
E|-----------------------------------------|----------------------------------|

e|-----------------------------------|---------------------------------|
B|--8----8----8-10b-10b10b11b10b-8---|--8--10b-10b-10b---10b-10b-10b10b|
G|-----9----9----------------------9-|---------------------------------|
D|-----------------------------------|---------------------------------|
A|-----------------------------------|---------------------------------|
E|-----------------------------------|---------------------------------|

e|----------------------------------------|--10--10--10--10--10--10--10--10--|
B|---10b10b10b-10b10b10b-10b10b10b---8-10-|--10b-10b-10b-10b-10b-10b-10b-10r-|
G|---------------------------------9------|----------------------------------|
D|----------------------------------------|----------------------------------|
A|----------------------------------------|----------------------------------|
E|----------------------------------------|----------------------------------|

e|--10--10-10--10-10---10-10--10-10--10-10-10-|--10--10--10--10--10--10--10--10--|
B|--8------8---8--10p8----8------8------8--10-|--10b-10b-10b-10b-10b-10b-10b-10r-|
G|------9--------------9------9------9--------|----------------------------------|
D|--------------------------------------------|----------------------------------|
A|--------------------------------------------|----------------------------------|
E|--------------------------------------------|----------------------------------|

e|--10--10-10--10-10---10-10--10-10--10-10-10-|--10--10--10--10--10--10--10--10--|
B|--8------8---8--10p8----8------8------8--10-|--10b-10b-10b-10b-10b-10b-10b-10b-|
G|------9--------------9------9------9--------|----------------------------------|
D|--------------------------------------------|----------------------------------|
A|--------------------------------------------|----------------------------------|
E|--------------------------------------------|----------------------------------|

e|--10--10--10--10--10--10--10--10--|
B|--10b-10b-10b-10b-10b-10b-10b-10r-|
G|----------------------------------|
D|----------------------------------|
A|----------------------------------|
E|----------------------------------|

e|--10--10-10--10-10---10-10--10-10--10-10---10-|
B|--8------8---8--10p8----8------8---8--10p8----|
G|------9--------------9------9--------------9--|
D|----------------------------------------------|
A|----------------------------------------------|
E|----------------------------------------------|

e|--10--10-10--10-10---10-10--10-10--10-10-13-|
B|--8------8---8--10p8----8------8------8-----|
G|------9--------------9------9------9--------|
D|--------------------------------------------|
A|--------------------------------------------|
E|--------------------------------------------|

e|------13-----13-----13-----13-----13----|
B|--13b----13b----13b----13b----13b----13b|
G|----------------------------------------|
D|----------------------------------------|
A|----------------------------------------|
E|----------------------------------------|

e|---13----13----13----13----13----13----13------|
B|------13b---13b---13b---13b---13b---13b---13bx-|
G|---------------------------------------------x-|
D|-----------------------------------------------|
A|-----------------------------------------------|
E|-----------------------------------------------|

e|------18-----18-----18-----18-----18----|
B|--18b----18b----18b----18b----18b----18b|
G|----------------------------------------|
D|----------------------------------------|
A|----------------------------------------|
E|----------------------------------------|

e|---18----18----18----18----18----18-----22--|
B|------18b---18b---18b---18b---18b---18b-18b-|
G|--------------------------------------------|
D|--------------------------------------------|
A|--------------------------------------------|
E|--------------------------------------------|

e|------22-----22-----22-----22-----22----|
B|--22b----22b----22b----22b----22b----22b|
G|----------------------------------------|
D|----------------------------------------|
A|----------------------------------------|
E|----------------------------------------|

e|---22----22----22----22----22----22----22----22-|
B|------22b---22b---22b---22b---22b---22b---22b---|
G|------------------------------------------------|
D|------------------------------------------------|
A|------------------------------------------------|
E|------------------------------------------------|

e|-----22----22----22----22----22----22----22----22-|
B|--22b---22b---22b---22b---22b---22b---22b---22b---|
G|--------------------------------------------------|
D|--------------------------------------------------|
A|--------------------------------------------------|
E|--------------------------------------------------|

e|-----22----22----22----22----22----22----22----22-22-22-22-22-22-22-22-22-22-22--|
B|--22b---22b---22b---22b---22b---22b---22b---22b22b22b22b22b22b22b22b22b22b22b22b-|
G|---------------------------------------------------------------------------------|
D|---------------------------------------------------------------------------------|
A|---------------------------------------------------------------------------------|
E|---------------------------------------------------------------------------------|

e|---------------------------------------|
B|---8b-13--11-8-11b-11-13-8-11-13-13b11-|
G|---------------------------------------|
D|---------------------------------------|
A|---------------------------------------|
E|---------------------------------------|

e|---------------------------------------15-|
B|--13-8-11-13-11-8-13b8-11-13-11b-8--------|
G|------------------------------------17----|
D|------------------------------------------|
A|------------------------------------------|
E|------------------------------------------|

e|-----------15----------15----------15----------15----------15----------15-------|
B|--18p15-------18p15-------18p15-------18p15-------18p15-------18p15-------18p15-|
G|--------17----------17----------17----------17----------17----------17----------|
D|--------------------------------------------------------------------------------|
A|--------------------------------------------------------------------------------|
E|--------------------------------------------------------------------------------|

e|----------------------------------------|
B|--18b-18b-18r-18----18------------------|
G|-----------------19-----19-17-19--17-16-|
D|----------------------------------------|
A|----------------------------------------|
E|----------------------------------------|

e|---------------------------------------------------------------------------------|
B|---------------------------------------------------------------------------------|
G|--17--16----16-19p16----16-19p16----16-19p16----16-19p16----16-19p16----16-19p16-|
D|---------17----------17----------17----------17----------17----------17----------|
A|---------------------------------------------------------------------------------|
E|---------------------------------------------------------------------------------|

e|--------------------------------------------------|
B|--------------------------------------------------|
G|--19b-19b-19r-19-19-19p17-17-17-17p16h17-16h17p16-|
D|--------------------------------------------------|
A|--------------------------------------------------|
E|--------------------------------------------------|

e|--------------------------------------------------------------|
B|--------------------------------------------------------------|
G|--16/---4h7---4h7---4h7---4h7---4h7---4h7---4h7---4h7---4h7---|
D|------5-----5-----5-----5-----5-----5-----5-----5-----5-----5-|
A|--------------------------------------------------------------|
E|--------------------------------------------------------------|

e|-------------------------------------------------------------|
B|-------------------------------------------------------------|
G|--4h7---4h7---4h7---4h7---4h7---4h7---4h7---4h7---4h7---4h7/-|
D|------5-----5-----5-----5-----5-----5-----5-----5-----5------|
A|-------------------------------------------------------------|
E|-------------------------------------------------------------|

e|-------------------------------|-------------------------------|
B|--8--8b-8r-8-8-8/5-5-5-5/3-3/1-|-------------------------------|
G|-------------------------------|--5-4---5-4---5b-5--5-4-5-4----|
D|-------------------------------|------5-----5---------------5/-|
A|-------------------------------|-------------------------------|
E|-------------------------------|-------------------------------|

e|----------------------------------|-----------------------------------|
B|--8----8--8-10---8----8--8-10p8---|--8----8----8-10b-10b10b10b10b-8---|
G|-----9---------9----9-----------9-|-----9----9----------------------9-|
D|----------------------------------|-----------------------------------|
A|----------------------------------|-----------------------------------|
E|----------------------------------|-----------------------------------|

e|-------------------------------------|---------------------------------------|
B|--8--10b-10b-10b-10b-10b10b-10b10b10b|---10b10b10b-10b10b10b-10-8---8---8-10-|
G|-------------------------------------|----------------------------9---9------|
D|-------------------------------------|---------------------------------------|
A|-------------------------------------|---------------------------------------|
E|-------------------------------------|---------------------------------------|

e|--10-10-10---10-10--10--10--10--10--|
B|--10b10-10b--10r8---10--10--10--10r-|
G|------------------------------------|
D|------------------------------------|
A|------------------------------------|
E|------------------------------------|

e|--10--10-10--10-10---10-10--10-10--10-10-10-|--10--10--10--10--10--10--10--10--|
B|--8------8---8--10p8----8------8------8--10-|--10b-10b-10b-10b-10r-10--10--10r-|
G|------9--------------9------9------9--------|----------------------------------|
D|--------------------------------------------|----------------------------------|
A|--------------------------------------------|----------------------------------|
E|--------------------------------------------|----------------------------------|

e|--10--10-10--10-10---10-10--10-10--10-10-10-|--10--10--10--10--10--10--10--10--|
B|--8------8---8--10p8----8------8------8--10-|--10b-10b-10b-10b-10r-10--10--10r-|
G|------9--------------9------9------9--------|----------------------------------|
D|--------------------------------------------|----------------------------------|
A|--------------------------------------------|----------------------------------|
E|--------------------------------------------|----------------------------------|

e|--10--10-10--10-10---10-10--10-10--10-10-10-|--10------10------10------10------|
B|--8------8---8--10p8----8------8------8--10-|--10b-----10b-----10b-----10b-----|
G|------9--------------9------9------9--------|-------12------12------12------12-|
D|--------------------------------------------|----------------------------------|
A|--------------------------------------------|----------------------------------|
E|--------------------------------------------|----------------------------------|

e|--10--10-10--10-10---10-10--10-10--10-10-10-|--10--10--10--10--10--10--10--10--|
B|--8------8---8--10p8----8------8------8--10-|--10b-10b-10b-10b-10b-10b-10b-10r-|
G|------9--------------9------9------9--------|----------------------------------|
D|--------------------------------------------|----------------------------------|
A|--------------------------------------------|----------------------------------|
E|--------------------------------------------|----------------------------------|

e|--10--10-10--10-10---10-10--10-10--x-------|
B|--8------8---8--10p8----8------8---x-15-18-|
G|------9--------------9------9--------------|
D|-------------------------------------------|
A|-------------------------------------------|
E|-------------------------------------------|

e|--15~-------15~-------15~-------15~-------|
B|------15-18-----15-18-----15-18-----15-18-|
G|------------------------------------------|
D|------------------------------------------|
A|------------------------------------------|
E|------------------------------------------|

e|--15~-------15~--------------------------------|
B|------15-18-----15-18-18b18b18b18~-18-15-15h18-|
G|-----------------------------------------------|
D|-----------------------------------------------|
A|-----------------------------------------------|
E|-----------------------------------------------|

e|---------------------------------------------------------------|
B|--18b-18-15-18b18b18p15----18b18b18b18p15----18b18b18b18p15----|
G|------------------------15~---------------15~---------------15~|
D|---------------------------------------------------------------|
A|---------------------------------------------------------------|
E|---------------------------------------------------------------|

e|-------------------------------------------------------15----|
B|--18b18b18b18p15----18b18b18b18p15----18b18b18r-18b-------15-|
G|-----------------15----------------15---------------15-------|
D|-------------------------------------------------------------|
A|-------------------------------------------------------------|
E|-------------------------------------------------------------|

e|--18p15----18p15----18p15----18p15----18p15----18p15----18p15----18p15----18p15-|
B|--------15-------15-------15-------15-------15-------15-------15-------15-------|
G|--------------------------------------------------------------------------------|
D|--------------------------------------------------------------------------------|
A|--------------------------------------------------------------------------------|
E|--------------------------------------------------------------------------------|

e|--18p15----18p15----18p15----18p15----18p15----18b-18b-18b-18-15-|
B|--------15-------15-------15-------15-------15-------------------|
G|-----------------------------------------------------------------|
D|-----------------------------------------------------------------|
A|-----------------------------------------------------------------|
E|-----------------------------------------------------------------|

e|------------------------------------------------------------------------|
B|--18-18b18-18~-18b18-15-18p15----18p15----18p15----18p15----18p15----18p|
G|------------------------------15-------15-------15-------15-------15----|
D|------------------------------------------------------------------------|
A|------------------------------------------------------------------------|
E|------------------------------------------------------------------------|

e|--------------------------------------------------------------------------------|
B|--15----18p15----18p15----18p15----18p15----18p15----18p15----18p15----18p15----|
G|-----15-------15-------15-------15-------15-------15-------15-------15-------15-|
D|--------------------------------------------------------------------------------|
A|--------------------------------------------------------------------------------|
E|--------------------------------------------------------------------------------|

e|-------------------15-15-15-15----------|------------------------------|
B|--18b--18b-18b18r--18-18-18-18----------|------------------------8-----|
G|-------------------------------19-19-19-|--17b17b17r-15r---12r---10r---|
D|----------------------------------------|------------------------------|
A|----------------------------------------|------------------------------|
E|----------------------------------------|------------------------------|

e|-----------------------|---------------------------|
B|--6----5----3---3---3--|--3--3--3--3--3--3--3--3-3/|
G|--8r---7r---5b--5b--5b-|--5b-5b-5b-5b-5b-5b-5b-5b--|
D|-----------------------|---------------------------|
A|-----------------------|---------------------------|
E|-----------------------|---------------------------|

e|----------------------------------------------|
B|--11-11-13/3/11-10-13/3/11-11-13/3/11-10-13/3/|
G|----------------------------------------------|
D|----------------------------------------------|
A|----------------------------------------------|
E|----------------------------------------------|

e|------------------------------------------|
B|--11-11-13/3/11-10-13/3/11-11-13b-13r-11--|
G|------------------------------------------|
D|------------------------------------------|
A|------------------------------------------|
E|------------------------------------------|

e|-------------------------------------------|-----------------------------------|
B|-------------------------------------------|--------8--8-10---8-10---8----8-10-|
G|--12--12--12--12--10-10-10--10-------------|------9---------9------9----9------|
D|-------------------------------12p10h12-10-|-----------------------------------|
A|-------------------------------------------|--10/------------------------------|
E|-------------------------------------------|-----------------------------------|

e|--10--10--10--10--10--10--10--10--|--10--10--10--10--10--10--10--10---|
B|--10b-10b-10b-10b-10b-10b-10b-10b-|--10b-------------10b------------8-|
G|----------------------------------|-----------------------------------|
D|----------------------------------|-----------------------------------|
A|----------------------------------|-----------------------------------|
E|----------------------------------|-----------------------------------|

e|--10--10----10---10--10---10-10----------|
B|--10b-10~---10r8-10--8----8--10p8h10p8---|
G|------------------------9--------------9-|
D|-----------------------------------------|
A|-----------------------------------------|
E|-----------------------------------------|

e|--10--10-10--10-10---10-10--10-10----------|
B|--8------8---8--10p8----8------8--------15-|
G|------9--------------9------9------8/15----|
D|-------------------------------------------|
A|-------------------------------------------|
E|-------------------------------------------|

e|------------------------------------------|
B|--18b-15-18-------------------------------|
G|------------17r-15-17~--15----17-15-------|
D|---------------------------17-------17-15-|
A|------------------------------------------|
E|------------------------------------------|

e|----------------------------------------------------|
B|----------------------------------------------------|
G|----------------------------------------------------|
D|----------------------------------------------------|
A|--17p15----15----------------------15------------5--|
E|--------18----15-18-15-15-18-15-15----15-17b-15/-5--|

e|------------------------------|--------------------------------|
B|------------------------------|--------------------------------|
G|--------------3-x-3-x-3-3---x-|--5--x-5-5--x-5-5-5-5-5-5-5-5-5-|
D|--5--x-5-5--x-3-x-3-x-3-3---x-|--5--x-5-5--x-5-5-5-5-5-5-5-5-5-|
A|--5--x-5-5--x-1-x-1-x-1-1---x-|--3--x-3-3--x-3-3-3-3-3-3-3-3-3-|
E|--3--x-3-3--x-----------------|--------------------------------|

e|------------------------------|--------------------------------|
B|------------------------------|--------------------------------|
G|--------------3-x-3-x-3-3---x-|--5--x-5-5--x-5-5-5-5-5-5-5-5-5-|
D|--5--x-5-5--x-3-x-3-x-3-3---x-|--5--x-5-5--x-5-5-5-5-5-5-5-5-5-|
A|--5--x-5-5--x-1-x-1-x-1-1---x-|--3--x-3-3--x-3-3-3-3-3-3-3-3-3-|
E|--3--x-3-3--x-----------------|--------------------------------|

e|-----------------------------------------------|
B|-----------------------------------------------|
G|--4----4-4-4-4-4-4-4-4-4-4-4-4-4-4-4-4-4-4-4-4-|
D|--5----5-5-5-5-5-5-5-5-5-5-5-5-5-5-5-5-5-5-5-5-|
A|--5----5-5-5-5-5-5-5-5-5-5-5-5-5-5-5-5-5-5-5-5-|
E|--3----3-3-3-3-3-3-3-3-3-3-3-3-3-3-3-3-3-3-3-3-|

e|------------------------------------------------------------------|--3-------|
B|------------------------------------------------------------------|--3-------|
G|--4-4-4-4-4-4-4-4-4-4-4-4-4-4-4-4-4-4-4-4-4-4-4-4-4-4-4-4-4-4-4-4-|--4-------|
D|--5-5-5-5-5-5-5-5-5-5-5-5-5-5-5-5-5-5-5-5-5-5-5-5-5-5-5-5-5-5-5-5-|--5-------|
A|--5-5-5-5-5-5-5-5-5-5-5-5-5-5-5-5-5-5-5-5-5-5-5-5-5-5-5-5-5-5-5-5-|--5-------|
E|--3-3-3-3-3-3-3-3-3-3-3-3-3-3-3-3-3-3-3-3-3-3-3-3-3-3-3-3-3-3-3-3-|--3-------|

e|---------------------------------------------------------|
B|---------------------------------------------------------|
G|--7--7-7-7-7-7-7-7-7-7-7-7-7-7-7-7-7-7-7-7-7-7-7-7-7-7-7-|
D|--8--8-8-8-8-8-8-8-8-8-8-8-8-8-8-8-8-8-8-8-8-8-8-8-8-8-8-|
A|--8--8-8-8-8-8-8-8-8-8-8-8-8-8-8-8-8-8-8-8-8-8-8-8-8-8-8-|
E|--6--6-6-6-6-6-6-6-6-6-6-6-6-6-6-6-6-6-6-6-6-6-6-6-6-6-6-|

e|------------------------------------------------------------------|
B|------------------------------------------------------------------|
G|--7-7-7-7-7-7-7-7-7-7-7-7-7-7-7-7-7-7-7-7-7-7-7-7-7-7-7-7-7-7-7-7-|
D|--8-8-8-8-8-8-8-8-8-8-8-8-8-8-8-8-8-8-8-8-8-8-8-8-8-8-8-8-8-8-8-8-|
A|--8-8-8-8-8-8-8-8-8-8-8-8-8-8-8-8-8-8-8-8-8-8-8-8-8-8-8-8-8-8-8-8-|
E|--6-6-6-6-6-6-6-6-6-6-6-6-6-6-6-6-6-6-6-6-6-6-6-6-6-6-6-6-6-6-6-6-|

e|------------------------------------------------------------------|--6-------|
B|------------------------------------------------------------------|--6-------|
G|--7-7-7-7-7-7-7-7-7-7-7-7-7-7-7-7-7-7-7-7-7-7-7-7-7-7-7-7-7-7-7-7-|--7-------|
D|--8-8-8-8-8-8-8-8-8-8-8-8-8-8-8-8-8-8-8-8-8-8-8-8-8-8-8-8-8-8-8-8-|--8-------|
A|--8-8-8-8-8-8-8-8-8-8-8-8-8-8-8-8-8-8-8-8-8-8-8-8-8-8-8-8-8-8-8-8-|--8-------|
E|--6-6-6-6-6-6-6-6-6-6-6-6-6-6-6-6-6-6-6-6-6-6-6-6-6-6-6-6-6-6-6-6-|--6-------|

e|--------------------------------------------------------------------------------|
B|--------------------------------------------------------------------------------|
G|--9--9--9--9--9--9--9--9--9--9--9--9--9--9--9--9--9--9--9--9--9--9--9--9--9--9--|
D|--10-10-10-10-10-10-10-10-10-10-10-10-10-10-10-10-10-10-10-10-10-10-10-10-10-10-|
A|--10-10-10-10-10-10-10-10-10-10-10-10-10-10-10-10-10-10-10-10-10-10-10-10-10-10-|
E|--8--8--8--8--8--8--8--8--8--8--8--8--8--8--8--8--8--8--8--8--8--8--8--8--8--8--|

e|--------------------------------------------------------------------------------|
B|--------------------------------------------------------------------------------|
G|--9--9--9--9--9--9--9--9--9--9--9--9--9--9--9--9--9--9--9--9--9--9--9--9--9--9--|
D|--10-10-10-10-10-10-10-10-10-10-10-10-10-10-10-10-10-10-10-10-10-10-10-10-10-10-|
A|--10-10-10-10-10-10-10-10-10-10-10-10-10-10-10-10-10-10-10-10-10-10-10-10-10-10-|
E|--8--8--8--8--8--8--8--8--8--8--8--8--8--8--8--8--8--8--8--8--8--8--8--8--8--8--|

e|--------------------------------------------------------------------------------|
B|--------------------------------------------------------------------------------|
G|--9--9--9--9--9--9--9--9--9--9--9--9--9--9--9--9--9--9--9--9--9--9--9--9--9--9--|
D|--10-10-10-10-10-10-10-10-10-10-10-10-10-10-10-10-10-10-10-10-10-10-10-10-10-10-|
A|--10-10-10-10-10-10-10-10-10-10-10-10-10-10-10-10-10-10-10-10-10-10-10-10-10-10-|
E|--8--8--8--8--8--8--8--8--8--8--8--8--8--8--8--8--8--8--8--8--8--8--8--8--8--8--|

e|--------------------------------------------------------------------------------|
B|--------------------------------------------------------------------------------|
G|--9--9--9--9--9--9--9--9--9--9--9--9--9--9--9--9--9--9--9--9--9--9--9--9--9--9--|
D|--10-10-10-10-10-10-10-10-10-10-10-10-10-10-10-10-10-10-10-10-10-10-10-10-10-10-|
A|--10-10-10-10-10-10-10-10-10-10-10-10-10-10-10-10-10-10-10-10-10-10-10-10-10-10-|
E|--8--8--8--8--8--8--8--8--8--8--8--8--8--8--8--8--8--8--8--8--8--8--8--8--8--8--|

e|-----------|---------------------------------------------------|
B|-----------|---------------------------------------------------|
G|--9--------|---------------------------------------------------|
D|--10-------|---------------------------12-15p13p12----12-13-15-|
A|--10-------|---------------------13-15-------------15----------|
E|--8--------|--15~-------------15-------------------------------|

e|-------------------------------------------------------------------------|
B|-------------------------------------------------------------------------|
G|-------------------------------------------------------------------------|
D|--15~-------15--15p13p12----12-13-15-13h15p13p12-------12h13p12----------|
A|-------------------------15----------------------15p13----------15p13p12-|
E|-------------------------------------------------------------------------|

e|------------------------------------------------------------------------|
B|------------------------------------------------------------------------|
G|------------------------------------------------------------------------|
D|------------------------------------------------------12-13-12----------|
A|--12h13p12-----------------------12-13-12----13-13-15----------15-13----|
E|-----------15p13p12-----12-13-15----------15-------------------------13-|

e|----------------------|
B|----------------------|
G|----------------------|
D|----------------------|
A|----------------14----|
E|--15b-----------------|

e|----------------------------------------------------------|
B|----------------------------------------------------------|
G|----------------------------------------------------------|
D|-------------17p15----------------------------------------|
A|----------17-------17p15p13----15p13----15p13----15p13----|
E|----------------------------15-------15-------15-------15-|

e|-------------------------|
B|-------------------------|
G|-------------------------|
D|-------------------------|
A|--13b--13b13b-------14---|
E|-------------------------|

e|----------------------------------------------------------------|
B|------3/--15-15-15-15-15-15-15-15-15-15-15-15-15-15-15-15-15-15-|
G|------4/--15-16-16-16-16-16-16-16-16-16-16-16-16-16-16-16-16-16-|
D|----------------------------------------------------------------|
A|----------------------------------------------------------------|
E|----------------------------------------------------------------|

e|--15-15-15-15-15-15-15-15-15-15-15-15-15-15-15-15-15-15-15-15-15-15-15-15-15-15-|
B|--15-15-15-15-15-15-15-15-15-15-15-15-15-15-15-15-15-15-15-15-15-15-15-15-15-15-|
G|--16-16-16-16-16-16-16-16-16-16-16-16-16-16-16-16-16-16-16-16-16-16-16-16-16-16-|
D|--------------------------------------------------------------------------------|
A|--------------------------------------------------------------------------------|
E|--------------------------------------------------------------------------------|

e|--15-15-15-15-15-15-15-15-15-15-15-15-15-15-15-15-15-15-15-15-15-15-15-15-15-15-|
B|--15-15-15-15-15-15-15-15-15-15-15-15-15-15-15-15-15-15-15-15-15-15-15-15-15-15-|
G|--16-16-16-16-16-16-16-16-16-16-16-16-16-16-16-16-16-16-16-16-16-16-16-16-16-16-|
D|--------------------------------------------------------------------------------|
A|--------------------------------------------------------------------------------|
E|--------------------------------------------------------------------------------|

e|--15-15-15-15-15-15-15-15-15-15-15-15-15-15-15-15-15-15-15-15-15-15-15-15-15-15-|
B|--15-15-15-15-15-15-15-15-15-15-15-15-15-15-15-15-15-15-15-15-15-15-15-15-15-15-|
G|--16-16-16-16-16-16-16-16-16-16-16-16-16-16-16-16-16-16-16-16-16-16-16-16-16-16-|
D|--------------------------------------------------------------------------------|
A|--------------------------------------------------------------------------------|
E|--------------------------------------------------------------------------------|

e|--15-15-15-15-15-15-15-15-15-15-15-15-15-15-15-15-15-15-15-15-15-15-15-15-15-15-|
B|--15-15-15-15-15-15-15-15-15-15-15-15-15-15-15-15-15-15-15-15-15-15-15-15-15-15-|
G|--16-16-16-16-16-16-16-16-16-16-16-16-16-16-16-16-16-16-16-16-16-16-16-16-16-16-|
D|--------------------------------------------------------------------------------|
A|--------------------------------------------------------------------------------|
E|--------------------------------------------------------------------------------|

e|--3-------|--------------------|------------------||
B|--3-------|--------------------|------------------||
G|--4-------|--------------------|------------------||
D|--5-------|--5----5/-----------|------------------||
A|--5-------|--5----5/-----------|------------------||
E|--3-------|--3----3/-----------|------------------||

There thats it please rate high it took a real long time


************************************
| x   Dead note
| g   Grace note
| (n) Ghost note
| h   Hammer-on
| p   Pull-off
| r   Release
| >   Accented note
| t   Tapping
| b   Bend
| br  Bend release
| pb  Pre-bend
| pbr Pre-bend release
| /   Slide up
| \   Slide down
| ~   Vibrato
| s   Slap
| P   Pop
| PM  Palm mute
| TR  Trill
| N   Tremolo
************************************
Suggest correction
What's this?
You can suggest a correction to this tab. Community and Mods will review your correction and vote to approve or reject it.
comments
print report bad tab
200 comments total. Showing first comments.
+12 reply
JPLegrand 350 wrote on June 11 2006, 09:06 pm

Awesome tab, great Solo!

+12 reply
bdtribble 22 wrote on June 14 2006, 02:21 pm

perfect! I have a lynard skynard book with alot of their songs and this these tabs match up perfectly! Weell, as far as i can tll. Nice tabs

+10 reply
Stephen Cannon 19 wrote on June 16 2006, 08:54 am

Nice...Genius!!!

guest
You may want to rate the tab now too:
select rating
Please do not post tabs as comments. Select "correction" instead!