Oops, an error
Loading. Please wait.

Gimme Back My Bullets Bass Tab

version 1
version 1

Whole song

Interactive

4,582 views 3 this week
3 commentsread comments
1 2 3 4 5
please rate
add to favorites
launch autoscroll
font size
0
reset
guitar tuner
Tab Pro tools
  • play this tab
  • loop segment
  • change instrument
  • show fretboard
  • metronome
×
Best way to learn
"Gimme Back My Bullets"
Autoscroll
slow
fast
+/-
esc
set tempo
stop
Contributor
#----------------------------------PLEASE NOTE---------------------------------#
#This file is the author's own work and represents their interpretation of the #
#song. You may only use this file for private study, scholarship, or research. #
#------------------------------------------------------------------------------#

GIMMIE BACK MY BULLETS (Bassline)




Transcribed by Gary Ramsey

 

 

Gtr I (E A D G) - 'Staff'


  Q=90
 4/4
  Gtr I
  H    E S S E S S   S S S S E S S S E S E S S   S E S E S S S E S E S S
|------------------|---------------------------|--------------------------|
|------------------|---------------------------|--------------------------|
|------------0-----|-3-0-----0-----0-----0-----|-0-----0-----0-----0------|
|--------0-3---3---|-------3---3-0-----3---0-3-|-----3---3-0-----3---0-3--|


  S E S E S S S E S E S S   S E S E S S S S E Q    Q  E E Q  E E
|-------------------------|----------------------|---------------|
|-------------------------|----------------------|---------------|
|-0-----0-----0-----0-----|-0-----0-----0--------|-0----0-3--0-3-|
|-----3---3-0-----3---0-3-|-----3---3-0----------|----3----------|


  Q  E S S E. S S E S   Q  E E Q  E S S   Q  E S S Q  S S E   Q  E E Q  E E
|---------------------|-----------------|-------------------|----------------|
|---------------------|-----------------|-------------------|----------------|
|-5--3-0---0------0---|-0----0-3--5-3-0-|----------0--3-0---|-0----0-3--0-3--|
|--------3----0-3---3-|----3------------|-3--0-3-0--------3-|----3-----------|


  Q  E S S E S S S E S   Q  E E Q  E S S   Q  E S S S S S S E S S
|----------------------|-----------------|-------------------------|
|----------------------|-----------------|-------------------------|
|-5--3-0---0-0-----0---|-0----0-3--5-3-0-|----------0-------0------|
|--------3-----0-3---3-|----3------------|-3--0-3-0-----0-3---3-0--|


  S S S S E S S S E S E S S   E. S E S S Q  E E   E. S E S S S S S S E S S
|---------------------------|-------------------|---------------------------|
|---------------------------|-------------------|---------------------------|
|-3-0-----0-----0-----0---0-|-5----5-5---3--2---|-0----0-----0-3-0---0------|
|-------3---3-0-----0---3---|----5-----5------3-|----0---0-3-------3---3-0--|


  E. S E S S E. S E S S   E. S E S S E. S S E S   E. S E S S Q  E S S
|-----------------------|-----------------------|---------------------|
|-----------------------|-----------------------|---------------2-3---|
|-5----5-5---3--0-3-3-0-|------------0------0---|-5----5-5---3------3-|
|----5-----5------------|-3--3-0-3-0----0-3---3-|----5-----5----------|


  E E E E E S S E S S   S E S E S S S E S E S S   S E S E S S S S S S S S S S
|---------------------|-------------------------|-------------2-2-0-0----------|
|-5-------------------|-------------------------|------------------------------|
|---5---0-------0-----|-0-----0-----0-----0-----|-0-----0-------------3-3-5-5--|
|-----3-----0-3---3-0-|-----0---3-0-----0---3-0-|-----0---3-0------------------|


  E S S Q  Q  E E   Q  E S S E S S S E S   Q  E E Q  E S S
|-----------------|----------------------|------------------|
|-----------------|----------------------|------------------|
|----------3--5-3-|-5--3-0---0-0-----0---|-0----0-3--5-3-0--|
|-5-5-0-5---------|--------3-----0-3---3-|----3-------------|


  Q  E S S Q  S S E   Q  E E Q  E E   Q  E S S E S S S E S
|-------------------|---------------|-----------------------|
|-------------------|---------------|-----------------------|
|----------0--3-0---|-0----0-3--0-3-|-5--3-0---0-0-----0----|
|-3--0-3-0--------3-|----3----------|--------3-----0-3---3--|


  Q  E E Q  E S S   Q  E S S S S S S E S S   S S S S E S S S E S E S S
|-----------------|------------------------|----------------------------|
|-----------------|------------------------|----------------------------|
|-0----0-3--5-3-0-|----------0-------0-----|-3-0-----0-----0-----0---0--|
|----3------------|-3--0-3-0-----0-3---3-0-|-------3---3-0-----0---3----|


  E. S E S S E. S E E   E. S E S S S S S S E S S   E. S E S S E. S S S E
|---------------------|--------------------------|-----------------------|
|---------------------|--------------------------|-----------------------|
|-5----5-5---3--0-2---|-0----0-----0-3-0---0-----|-5----5-5---3--0-2-3---|
|----5-----5--------3-|----0---0-3-------3---3-0-|----5-----5----------3-|


  E. S E S S E S S S S S S   E. S E S S Q  E S S
|--------------------------|---------------------|
|--------------------------|---------------2-3---|
|-0----0-----0-0-----0-0---|-5----5-5---3------3-|
|----0---0-3-----0-3-----3-|----5-----5----------|


                     2/4
  E E E E E S S E E   E S S E E
|-------------------|------------|
|-5-----------------|------------|
|---5-----------0---|-------0----|
|-----0-5---0-3-----|---0-3---3--|


 4/4
  E S S E S S E S S E S S   E S S E S S E S S E S S   E. S +E  E +S  E S S S E
|-------------------------|-------------------------|----------2-(2)-2---9-8-9-|
|-------------------------|-------------------------|----2-(2)-----------------|
|-0-----0-----0-----0-----|-0-----0-----0-----0-----|-0------------------------|
|-----0---3-0-----0---0-3-|-----0---3-0-----0---0-3-|--------------------------|


   E.  S  +S   S  S  S  S  S  S  S  E  E
|-14--14-(14)-14-14-12-------------------|
|----------------------14-12-12-10-------|
|----------------------------------12-10-|
|----------------------------------------|


   E. S  E  S S E. S S S E   E. S E S S S S E S E S
|--------------------------|------------------------|
|--------------------------|------------------------|
|-----0-------0------------|-0----0-----0---0---0---|
|-10----10-10---8--5-7-8-3-|----0---0-3-------3---3-|


  E. S E S S E. S S S E   E. S E S S S S S S E S S   E. S E S S E. S S S E
|-----------------------|--------------------------|------------------------|
|-----------------------|--------------------------|------------------------|
|-5----5-5---3--0-2-3---|-0----0-----0-3-0---0-----|-5----5-5---3--0-2-3----|
|----5-----5----------3-|----0---0-3-------3---3-0-|----5-----5----------3--|


  E. S E S S S S S S E S S   E. S E S S E. S S S E   Q  S S E S S E Q
|--------------------------|-----------------------|--------------------|
|--------------------------|-----------------------|----------------2---|
|-0----0-----0-3-0---0-----|-5----5-5---3--0-2-3---|-0--0-----0---------|
|----0---0-3-------3---3-0-|----5-----5----------3-|------0-3-----------|


  Q  E E Q  E E   Q  E S S E S S S E S   E E E E Q  E S S
|---------------|----------------------|------------------|
|---------------|----------------------|------------------|
|-0----0-3--0-3-|-5--3-0---0-0-----0---|-0-0---0-3--5-3-0-|
|----3----------|--------3-----0-3---3-|-----3------------|


  Q  E S S Q  S S E   Q  E E Q  E E   Q  E S S E S S S E S
|-------------------|---------------|-----------------------|
|-------------------|---------------|-----------------------|
|----------0--3-0---|-0----0-3--0-3-|-5--3-0---0-0-----0----|
|-3--0-3-0--------3-|----3----------|--------3-----0-3---3--|


  E E E E Q  E S S   E E E S S S S S S E S S   E S S E S S E S S E S S
|------------------|-------------------------|-------------------------|
|------------------|-------------------------|-------------------------|
|-0-0---0-3--5-3-0-|-----------0-------0-----|-0-----0-----0-----0---0-|
|-----3------------|-3-3-0-3-0-----0-3---3-0-|-----3---3-0-----3---3---|


  E. S E S S E. S E E   E. S E S S S S S S E S S   E. S E S S E. S E S S
|---------------------|--------------------------|-----------------------|
|---------------------|--------------------------|-----------------------|
|-5----5-5---3--0-2---|-0----0-----0-3-0---0-----|-5----5-5---3--0-3-2-0-|
|----5-----5--------3-|----0---0-3-------3---3-0-|----5-----5------------|


  E S S E S S E S S S E S   E. S E S S Q  E S S
|-------------------------|---------------------|
|-------------------------|---------------2-3---|
|-------------0-0-----0---|-5----5-5---3------3-|
|-3-3-3-0-3-0-----0-3---3-|----5-----5----------|


                     2/4
  E E E E E S S E E   E S S E S S
|-------------------|-------------|
|-5-----------------|-------------|
|---5-----------0---|-------0-----|
|-----0-5---0-3-----|---0-3---3-0-|


 4/4
  E S S E S S E S S E S S   E S S E S S E S S E S S   E S S E S S E S S E S S
|-------------------------|-------------------------|-------------------------|
|-------------------------|-------------------------|-------------------------|
|-0-----0-----0-----0-----|-0-----0-----0-----0-----|-0-----0-----0-----0-----|
|-----0---3-0-----0---0-3-|-----0---3-0-----0---0-3-|-----0---3-0-----0---3-0-|


  E S S E S S S S S S S S S S
|-------------2-2-------------|
|-----------------2-2---------|
|-0-----0-------------3-3-5-5-|
|-----0---3-0-----------------|


  E. S E S S E. S E S S   E. S E S S E. S E S S
|-----------------------|------------------------*|
|-----------------------|------------------------*|
|------------0----0-----|-0----0-----0----0------*|
|-5--0-5-3-0----0---0-3-|----0---0-3----0---3-0--*|




--------------------------------------------------------------------------------


Duration Legend
---------------
W - whole; H - half; Q - quarter; E - 8th; S - 16th; T - 32nd; X - 64th; a - acciaccatura
+ - note tied to previous; . - note dotted; .. - note double dotted
Uncapitalized letters represent notes that are staccato (1/2 duration)
Irregular groupings are notated above the duration line
Duration letters will always appear directly above the note/fret number it represents the
duration for.  Duration letters with no fret number below them represent rests.  Multi-
bar rests are notated in the form Wxn, where n is the number of bars to rest for.  Low
melody durations appear below the staff

Tablature Legend
----------------
 h   - hammer-on
 p   - pull-off
 b   - bend
 pb  - pre-bend
 r   - bend release (if no number after the r, then release immediately)
 /\  - slide into or out of (from/to "nowhere")
 s   - legato slide
 S   - shift slide
 - natural harmonic
[n]  - artificial harmonic
n(n) - tapped harmonic
 ~   - vibrato
 tr  - trill
 T   - tap
 TP  - trem. picking
 PM  - palm muting
\n/  - tremolo bar dip; n = amount to dip
 \n  - tremolo bar down
 n/  - tremolo bar up
/n\  - tremolo bar inverted dip
 =   - hold bend; also acts as connecting device for hammers/pulls
 <> - volume swell (louder/softer)
 x   - on rhythm slash represents muted slash
 o   - on rhythm slash represents single note slash

Misc Legend
-----------
 |  - bar
||  - double bar
||o - repeat start
o|| - repeat end
*|  - double bar (ending)
 :  - bar (freetime)
 $  - Segno
 &  - Coda
Tempo markers -  = BPM(8/16=s8/s16), where s8 = swing 8ths, s16 = swing 16ths



--------------------------------------------------------------------------------

** Generated using Power Tab Editor by Brad Larsen: The Official Power Tab Web Site
comments
We did not receive enough feedback on this tab! Please rate:
print report bad tab
1 2 3 4 5
3 comments total.
-2 reply
z0mb31_hun73r wrote on November 5 2011, 03:48 pm

not even close! tone deaf

0 reply
sclera wrote on September 22 2012, 11:46 am

This is actually pretty spot on. The original album recording is recorded half a step down, so of course this sounds wrong when you play it with the original. Fret-wise, it's good. It is just not in standard tuning.

0 reply
Fargo-Strut wrote on March 29 2013, 05:36 pm

This tab is VERY accurate (especially the middle section with the high bass part)! I'm impressed!

I want to post or [tab]
guest
You may want to rate the tab now too:
select rating
Please do not post tabs as comments. Select "correction" instead!