Oops, an error
Loading. Please wait.

Honky Tonk Night Time Man Tab

version 1
version 1

Whole song

Interactive

4,178 views 1 this week
1 commentread comment
1 2 3 4 5
please rate
add to favorites
launch autoscroll
font size
0
reset
how to read this tab
guitar tuner
Autoscroll
slow
fast
+/-
esc
set tempo
stop
Help us to improve Ultimate-Guitar.com Take our survey!
×
Author
-------------------------------------------------------------------------------
                             honky tonk night time man-Lynyrd Skynyrd
-------------------------------------------------------------------------------
Tabbed by:dwarfcar21
Email:wally_kai_harper@yahoo.com

Tuning:standard   NOTE** THIS TAB IS NOT PERFECT IT IS PLAYED BY EAR ..ESPECIALLY THE 
PLAY WITH THE EFFECTS AND NOBODY WILL RECOGNIZE! THANKS! :)

intro:this is palm muted
(electric palm muted or acoustic)                 IT HAS BLUES EFFECTS HERE\/
e|----------------------------------------------------------|--------------------------------|
B|--8-8b^-8~~----11h13b^--11~~~----------15---11h13---------|--------------------------------|
D|-------------------------------12p10--------------12p10h12|--------------------------------|
G|----------------------------------------------------------|--12p10h12p10-------------------|
A|----------------------------------------------------------|-------------12b^^p10-----------|
E|----------------------------------------------------------|----------------------13h14h15--|


          STILL BLUES EFFECTS\/
e|----------------8p6------------------------------------------------------------------------|
B|----------------------(11)p(8)-------------------------------------------------------------|
G|--------------------------------12-------10h12-------------12-12p10------------------------|
D|-----------------------------------12p10----------------------------12p10------------------|
A|-------------------------------------------------------8h10---------------13p10------------|
E|-15--15---15-------------------------------------------------------------------------------|

               Verse(ACOUSTIC GUITAR)
e|-------------------------------------------------------------------------------------------|
B|-------------------------------------------------------------------------------------------|
G|-------------0---------0-----------0------------0----0-------------------------------------|
D|-------------0---5p3---0---5p3h5p3-0----5p3h4h5-0----0-------------------------------------|
A|-------0-----2---------2-----------2------------2----2-------------------------------------|
E|-0-2-3-3-----3---------3-----------3------------3----3-------------------------------------|

NOTE* THIS MAY BE CONFUSING  BUT U WILL SLIDE FROM THE NECK NOT THE LAST NOTE :)(ELECTRIC)
e|------------------------------------------------------------------------------------------|
B|------------------------------------------------------------------------------------------|
G|------------------------------------------------------------------------------------------|
D|--/5-----------/10---------/12------/16------/12--/10-/12-/5------------------------------|
A|------------------------------------------------------------------------------------------|
E|------------------------------------------------------------------------------------------|

e|-----------------------------------------------------------------------------------------|
B|-----------------------------------------------------------------------------------------|
G|--12-10-12--12p10-------------------------------------------------10h12-12p10------------|
D|------------------12p10------12p10-------------------------------------------12p10-------|
A|-----------------------------------13p10---------------------8h10-----------------13p10--|
E|------------------------------------------(14)p(11)--------------------------------------|

*THIS IS PALM MUTED\/
e|----------------------------|------------------------------------------------------------|
B|----------------------------|------------------------------------------------------------|
G|----------------------------|-----------9-9h12-12-12-14----------------------------------|
D|----------------------------|--------------------------14p12-14p12---14p12---------------|
A|----------------------------|-----------------------------------------------10h12--------|
E|--10h11h12-10h11h12-10h11h12|-15-15-15---------------------------------------------------|

e|-----------------------------------------------------------------------------------------|
B|-----------------------------------------------------------------------------------------|
G|-----------------------------------------------------------------------12p10-------------|
D|--10-10h12-12--10h12-12--10h12-12--10h12-12-12p10h12---12p10-------12--------10h12--12---|
A|-------------------------------------------------------------13p10-----------------------|
E|-----------------------------------------------------------------------------------------|

e|-----------------------------------------------------------------------------------------|
B|----------------------------------------9h12---------------------------------------------|
G|--------------------9h12----10h12-10h12----------12p10-12p10-12p10-----------------------|
D|--12p10--------10h12-----------------------------------------------10h12-12-10h12-12-----|
A|--------13p10----------------------------------------------------------------------------|
E|-----------------------------------------------------------------------------------------|

e|-----------------------------------------------------------------------------------------|
B|-----------------------------------8p6------------------------15-------------------14----|
G|-----------------------------9h12--------------------------------------------------------|
D|-10h12-12-10h12-12------10h12------------12p10----------10h12----12p10-------------------|
A|----------------------------------------------13p10-------------------10---10h12---------|
E|-----------------------------------------------------------------------------------------|

e|-----------------------------------------------------------------------------------------|
B|----------------------------------------------------------------------------------14-14--|
G|-----------------------------------------------------------------------------------------|
D|--10h12-10h12---10h12----15h17--15h17--15h17-15h17--17p15--17--17p15--------12p10--------|
A|---------------------------------------------------------------------13p10---------------|
E|-----------------------------------------------------------------------------------------|

e|-----------------------------------------------------------------------------------------|
B|-14-14~~~~-----14-----14-----14-----14-------14-----14-----14-----14-----14-----14-------|
G|-----------------------------------------------------------------------------------------|
D|----------10h12--10h12--10h12--10h12----10h12--10h12--10h12--10h12--10h12--10h12---------|
A|-----------------------------------------------------------------------------------------|
E|-----------------------------------------------------------------------------------------|

e|-15b^^-(15b^^)--------------------------------------------------------------------------|
B|-14b^^-(14b^^)----12p10-12p10--15b^---------------15b^---15b^-15b^\---------------------|
G|-------------------------------------12p10-12p10-------------------12b^-12b^-12b^-12b^--|
D|----------------------------------------------------------------------------------------|
A|----------------------------------------------------------------------------------------|
E|----------------------------------------------------------------------------------------|

e|-------------------------------------------15-14-13---------------15b^^-15---------------|
B|----------------------------------------------------(15)-(12)-(5)-14b^^-14---------------|
G|-----------------------------------------------------------------------------------------|
D|-12b^-12b^h15-12b^------12p10h12-12p10h12------------------------------------------------|
A|-----------------------------------------------------------------------------------------|
E|-----------------------------------------------------------------------------------------|

e|--------------------------------|-15b^^--------------------------------------------------|
B|--------------------------------|-14b^^----14------15p13---------------------------------|
G|--------------------------------|---------------------------------------12p10------------|
D|---12-11-10-9-8-----------------|-----------------------12p10----------------------------|
A|----------------13-12-11-10-----|-----------------------------13p10-----------13p10------|
E|--------------------------------|--------------------------------------------------------|

BREAK_ PIANO SOLO

FINAL SOLO
e|-----------------------------------------------------------------------------------------|
B|-------------------------------------14-----------------------------------------14-------|
G|-----------------------------------------------------------------------------------------|
D|-5h7--0h5-7p5-0h5-7p5-0h5-7p5-0h5-7p5----0h5-7p5-0h5-7p5-0h5-7p5-0h5-7p5-0h5-7p5---------|
A|-----------------------------------------------------------------------------------------|
E|-----------------------------------------------------------------------------------------|

e|---------------------------------------------------------------------/15-12/7/5|--------------|
B|----------------------------------------15-12----------------------------------|----15-12(x2)-|
G|-12/7/5--12/7/5--10/7/5--10/7/5---------------14--12---12p7/5--12p7/5----------|-14-----------|
D|------------------------------------12-----------------------------------------|--------------|
A|-------------------------------------------------------------------------------|--------------|
E|-------------------------------------------------------------------------------|--------------|

OUTRO
e|--/15----------------------15b^-----------------------------------------------------------|
B|---------------------------15b^-----------------------------------------------------------|
G|------------------------------------------------------------------------------------------|
D|------------5---------3-------------------------------------------------------------------|
A|-----------5--5-----3--3------------------------------------------------------------------|
E|----------3----3---1----1-----------------------------------------------------------------|

| /  slide up
| \  slide down
| h  hammer-on
| p  pull-off
| ~  vibrato
| +  harmonic
| x  Mute note
| pm palm mute
| ^  bend 1/4
| ^^ bend 1/2
| ^^^bend full
| b  bend
| pb pre-bend
|() ghost note
===============================================================================
Suggest correction
Give kudos to tab author, rate the tab!
1 2 3 4 5
comments
print report bad tab
1 comment total.
+1 reply
dwarfcar21 441 wrote on February 7 2009, 09:23 pm

hi plzz commemt.. my 1st tab

guest
You may want to rate the tab now too:
select rating
Wanna post a correction for this tab? Suggest correction