Oops, an error
Loading. Please wait.

I Aint The One Tab

version 1
version 1

Whole song

Interactive

6,905 views 3 this week
no commentswrite comment
1 2 3 4 5
please rate
add to favorites
launch autoscroll
font size
0
reset
how to read this tab
guitar tuner
Autoscroll
slow
fast
+/-
esc
set tempo
stop
Help us to improve Ultimate-Guitar.com Take our survey!
×
Author
I aint the one
Lynyrd Skynyrd

p pull off
h hammer on
x palm mute
* harmonic
/ slide
b bend
~ trill

intro
e -----------------------------------------|
B -----------------------------------------|
G 2-----------2---------2---------2----2-9-|
D x-----------2---------2---------2-x2-2-9-|
A 3-0-0-0h2h3---0-0h2h3---0-0h2h3------0-7-|
E -----------------------------------------|

solo1
e 15b-15b-17-17p15--------------------------------20b-17h20p17---17-------|
B -----------------15h17h19-----15-----------------------------17--17-20b-|
G --------------------------17b----14-14-17p14-17b------------------------|
D ------------------------------------------------------------------------|
A ------------------------------------------------------------------------|
E ------------------------------------------------------------------------|

verses
e -------------------------------------------------------------------------|
B -------------------------------------------------------------------------|
G ----------2------------------2-------------2-------------------7p5-------|
D ----------2------------------2-------------2-------------------7p5-5h7p5-|
A 0-0-0h2h3---3p0-3p0-0-0-0h2h3----0-0-0h2h3---3p0-3p0-0-0-0h2h3-----5h7p5-|
E -------------------------------3-----------------------------------------|

e -------------------------------------------------------------------------|
B -------------------------------------------------------------------------|
G 7-7-------7-7-----7-7-------7-7-7-7-7-7-----------2------------------2---|
D 7-7-------7-7-----7-7-------7-7-7-7-7-7-----------2------------------2---|
A 5-5-5h7h8-5-5-7p5-5-5-5h7h8-5-5-5-5-5-5-0-0-0h2h3---3p0-3p0-0-0-0h2h3----|
E -----------------------------------------------------------------------3-|

chorus
e ----------------------------------------------------|
B ----------------------------------------------------|
G ------------------------------------------------7-5-|
D ---------------------------------------------x2-7-5-|
A ------------------------------------------------5-3-|
E 0-0-0h3h5p3-5p3-3-5p3p0-0-0-0h3h5p3-5p3-3-5p3-------|

solo2
e --------------------------------------------|
B -------------------------20b-20-------------|
G 17-17-17-15-17-17-15-17b--------17p15-17-15-|
D --------------------------------------------|
A --------------------------------------------|
E --------------------------------------------|

solo3 (1:52)
e ---------------------------------------------------------------------------|
B ---------------------------------------------------------------------------|
G 171717171717171717171717171717-17b-17b--17b-17b-17-15-17-15-17b17----------|bdontstop
D ---------------------------------------------------------------------------|
A ---------------------------------------------------------------------------|
E ---------------------------------------------------------------------------|

e ---------------------------------------------------------------------------|
B --------------------------------------------------1717-17b-17b-17----------|bdontstop
G 17b-17b-17b-17b-17b-17-15-17-15-17-15-17-15-15-17--------------------------|
D ---------------------------------------------------------------------------|
A ---------------------------------------------------------------------------|
E ---------------------------------------------------------------------------|
                                               (2:13)
e ---------------------------------------------15b-15b----------------------|
B 17b-17b-17b-17b-17b-17b-17b-17b-17b-15-17-15---------15-15-17-15-15-17-15-|
G --------------------------------------------------------------------dont--|
D --------------------------------------------------------------------stop--|
A --------------------------------------------------------------------------|
E --------------------------------------------------------------------------|

e ------------------15-13-15-13-15b-15b-15-13-15-13-15-13-15----------------|
B 15-17-15-17-15-17------------------------------------------13-11-13-11-13-|
G ---------------------------------------------------------------------dont-|
D --------------------------------------------------------------------------|
A --------------------------------------------------------------------------|
E --------------------------------------------------------------------------|

e -----------------------------------------------------------------17-15-17-|
B 11-13-11-13-13b-13b-13-11-13-11-13b-13b-13-11-13-11-13-11-13-11-----------|
G --------------------------------------------------------------------dont--|
D ---------------------------------------------------------------------stop-|
A --------------------------------------------------------------------------|
E --------------------------------------------------------------------------|
                          (2:31)           (2:37)
e 15---------------------------------------15h17--17-15----------------------|
B ---17------------------------------15-17--------------17p15h17p15----------|
G ------19-17-------------------------------------------------------17-15----|
D ------------19-17-------------------------------------------------------17-|
A ------------------19-17/15-------------------------------------------------|
E ---------------------------17~---------------------------------------------|

outro

e --------------------------------------------------------------------------|
B --------------------------------------------------------------------------|
G ----------2----------2---------2p0-2p0-2p0-----------2----------2---------|
D ----------2----------2-------------------------------2----------2---------|
A 0-0-0h2h3----0-0h2h3---0-0h2h3-------------0-0-0h2h3----0-0h2h3---0-0h2h3-|
E --------------------------------------------------------------------------|

e ----------|
B ----------|
G 7-5-2---2-|
D 7-5-2-5-2-|
A 5-3-0-5-0-|
E ------3---|

Not 100% correct but it sounds pretty dang close to me.
Any corrections just send them to me. guitarguyseventeen@yahoo.com
Suggest correction
What's this?
You can suggest a correction to this tab. Community and Mods will review your correction and vote to approve or reject it.
comments
We did not receive enough feedback on this tab! Please rate:
print report bad tab
1 2 3 4 5
guest
You may want to rate the tab now too:
select rating
Please do not post tabs as comments. Select "correction" instead!