Oops, an error
Loading. Please wait.

I Aint The One Tab

version 2
version 2

Whole song

Interactive

20,154 views 69 this week
no commentswrite comment
1 2 3 4 5
x 7
add to favorites
launch autoscroll
font size
0
reset
how to read this tab
guitar tuner
Autoscroll
slow
fast
+/-
esc
set tempo
stop
Help us to improve Ultimate-Guitar.com Take our survey!
×
Author
Lynyrd Skynyrd
I ain't the one

[Intro]
e|----------------------------------------------------------|
B|----------------------------------------------------------|
G|----5-----2-2-----2----2-2-----2-----2-2-----2----5-------|
D|----7-----2-2-----2----2-2-----2-----2-2-----2----5-------|
A|--------0-----3h4----------3h4-----------3h4------3-------|
E|----------------------------------------------------------|

e|----------------------------------------------------------|
B|----------------------------------------------------------|
G|-----2-2-----2----2-2-----2----2-2-----2-----7--9---------|
D|-----2-2-----2----2-2-----2----2-2-----2-----7--9---------|
A|---0-----3h4----------3h4----------3h4-------5--7---------|
E|----------------------------------------------------------|

[Main riff]
e|----------------------------------------------------------|
B|----------------------------------------------------------|
G|-------------------2----------------2---------------------|
D|----------------2--2------5p0--5p0--2---------------------|
A|---0---0---3h4---------0--3p0--3p0--0---------------------|
E|----------------------------------------------------------|

e|----------------------------------------------------------|
B|----------------------------------------------------------|
G|-----------------2----------------------------------------|
D|---------------2-2-----5----------------------------------|
A|---0----0-3h4----------5----------------------------------|
E|-----------------------3----------------------------------|

e|----------------------------------------------------------|
B|----------------------------------------------------------|
G|------------------2-------------------2-------------------|
D|---------------2--2-------5p0---5p0---2-------------------|
A|--0-----0-3h4---------0---3p0---3p0---0-------------------|
E|----------------------------------------------------------|

e|----------------------------------------------------------|
B|----------------------------------------------------------|
G|-------------------2--------------------------------------|
D|-----------------2-2----7--5------------------------------|
A|---0-----0-3h4-----------------7---5---3------------------|
E|----------------------------------------------------------|

[Verse 1]
(repeat main riff)
e|----------------------------------------------------------|
B|-----------------------5--5-------------------------------|
G|-----------------------5--5---9--7v-----------------------|
D|-----------------5--7---------9--7v-----------------------|
A|----5--5--5-5h7-------------------------------------------|
E|----------------------------------------------------------|

e|----------------------------------------------------------|
B|------------------5-5-5-----5-----------------------------|
G|------------------5-5-5--7--5--7v-------------------------|
D|-----------5--7----------7-----7v-------------------------|
A|----5-5h7-------------------------------------------------|
E|----------------------------------------------------------|

e|----------------------------------------------------------|
B|----------------------------------------------------------|
G|-------------------2----------------2---------------------|
D|----------------2--2------5p0--5p0--2---------------------|
A|---0---0---3h4---------0--3p0--3p0--0---------------------|
E|----------------------------------------------------------|

e|E----------------------------------------------------------|
B|----------------------------------------------------------|
G|------------------2---------------------------------------|
D|---------------2--2---------------------------------------|
A|---0----0-3h4---------------------------------------------|
E|----------------------3-----------------------------------|

[Chorus]
e|----------------------------------------------------------|
B|----------------------------------------------------------|
G|----------------------------------------------------------|
D|----------------------------------------------------------|
A|---------------4p2-----4p2--------2h4---------------------|
E|---0--0----3--------3-------3--4--------------------------|

e|----------------------------------------------------------|
B|----------------------------------------------------------|
G|----------------------------------------------------------|
D|----------------------------------------------------------|
A|--------------4p2-----4p2--------2------------------------|
E|---0--0----3-------3-------3--4---------------------------|

e|----------------------------------------------------------|
B|----------------------------------------------------------|
G|----------------------------------------------------------|
D|----------------------------------------------------------|
A|---------------4p2-----4p2--------2h4---------------------|
E|---0--0----3--------3-------3--4--------------------------|

e|----------------------------------------------------------|
B|----------------------------------------------------------|
G|---------------------------7---5------2-------------------|
D|---------------------------7---5------2-------------------|
A|----------------4p2--------5---3------0-------------------|
E|---0----0---3---------------------------------------------|

[Solo 1]
(Intro)
e|----15b---15b----17-15---------12-------------------------|
B|------------------------13-15-----13v---13b---------------|
G|---------------------------------------------14v----------|
D|----------------------------------------------------------|
A|----------------------------------------------------------|
E|----------------------------------------------------------|

e|---------------------/17-20b--20---17-20-17----17---------|
B|-------13----13b----------------------------20----20-20bv-|
G|---/14----14----------------------------------------------|
D|----------------------------------------------------------|
A|----------------------------------------------------------|
E|----------------------------------------------------------|

[Solo 2]
(after chorus 1)
e|----------------------------------------------------------|
B|-------------------17bv-----------------------------------|
G|----16bp14-16-14v--------16bp14-16brbv--------------------|
D|----------------------------------------------------------|
A|----------------------------------------------------------|
E|----------------------------------------------------------|

e|---15b----------------------------------------------------|
B|---------15-13-15b---15-13--15----------------------------|
G|--------------------------------14v-----------------------|
D|----------------------------------------------------------|
A|----------------------------------------------------------|
E|----------------------------------------------------------|

[Solo]
e|----------------------------------------------------------|
B|----------------------------------------------------------|
G|----17-17-17--14-17-17-14-17-14-17-17----17-14----17-14---|
D|-----------------------------------------------14------14-|
A|----------------------------------------------------------|
E|----------------------------------------------------------|


e|----------------------------------------------------------|
B|----------------------------------------------------------|
G|------------------------------------------------13--------|
D|----17-14------17b-17b-----17b---17b---14-12-14----14v----|
A|----------14----------------------------------------------|
E|----------------------------------------------------------|


e|----------------------------------------------------------|
B|----------------------------------------------------------|
G|----------------------------------------------------------|
D|--------------------------------------13------------------|
A|----17b-17b-17b-17b---17b---14-12-14------14-12-14v-------|
E|----------------------------------------------------------|


e|----------------------------------------------------------|
B|--------15-17-15-17b----17b-17b-17bp15-17b-17b-17bp15-----|
G|----/16---------------------------------------------------|
D|----------------------------------------------------------|
A|----------------------------------------------------------|
E|----------------------------------------------------------|


e|----------------------------------------------------------|
B|----17b-17b-17bp15---17b-17b-17bp15--17-15----------------|
G|----------------------------------------------------------|
D|----------------------------------------------------------|
A|----------------------------------------------------------|
E|----------------------------------------------------------|


e|----15b-------12-15-----12-15-----------------------------|
B|----------15b-------15b-------15brp13----13h15-13b--------|
G|--------------------------------------14-----------14v----|
D|----------------------------------------------------------|
A|----------------------------------------------------------|
E|----------------------------------------------------------|



e|--------12--------------15br--15--12----12----------------|
B|-----------12-15p12------------------15----15b------------|
G|---/13--------------14------------------------------------|
D|----------------------------------------------------------|
A|----------------------------------------------------------|
E|----------------------------------------------------------|

e|----------------------------------------------------------|
B|---15-12-----12-15--------------------------------15------|
G|---------14b-------14br-p12----14----12-14-12-14b----14b--|
D|----------------------------14----14----------------------|
A|----------------------------------------------------------|
E|----------------------------------------------------------|


e|----------------------------------------------------------|
B|----------------------------------------------------------|
G|-------12-14-14b-p12-14----12-14-12v----------------------|
D|---/14------------------14--------------------------------|
A|----------------------------------------------------------|
E|----------------------------------------------------------|


e|----------------------------------------------------------|
B|-------15-12-----12-15------------------------------------|
G|---14b-------14b--------14b-12----14----12-14-12v---------|
D|-------------------------------14----14-------------------|
A|----------------------------------------------------------|
E|----------------------------------------------------------|



e|---------12-15-----12-15----------------------------------|
B|----15b--------15b-------15br-13----15-13-----------------|
G|---------------------------------14-------14-12-----------|
D|------------------------------------------------14/12p10--|
A|----------------------------------------------------------|
E|----------------------------------------------------------|



e|----------------------------------------------------------|
B|----------------------------------------------------------|
G|----------------------------------------------------------|
D|----------------------------------------------------------|
A|-12v------------------------------------------------------|
E|----------------------------------------------------------|

************************************

| h   Hammer-on
| p   Pull-off
| b   Bend
| /   Slide up
| br  Bend release

************************************
Suggest correction
comments
print report bad tab
guest
You may want to rate the tab now too:
select rating
Wanna post a correction for this tab? Suggest correction