Oops, an error
Loading. Please wait.

I Aint The One Tab

version 3
version 3

Whole song

Interactive

2,728 views 9 this week
no commentswrite comment
1 2 3 4 5
please rate
add to favorites
launch autoscroll
font size
0
reset
how to read this tab
guitar tuner
Autoscroll
slow
fast
+/-
esc
set tempo
stop
Help us to improve Ultimate-Guitar.com Take our survey!
×
Difficulty
intermediate
           -=[ NMKeith74@aol.com ]=-

§~§~§  Sheet Music With Accurate Notation §~§~§

««««  Please take a moment and rate my sheet music  »»»»
                 ««««Thank You»»»»


The Playing Guide
_________________________________
                                 |
/  (slide up)                    |
\  (slide down)                  | 
H, h  (hammer-on)                | 
P, p  (pull-off)                 | 
B, b (bend) either ¼ ½ or 1 step |
~  (vibrato)                     | 
+  (harmonic)                    |
PM,  (Palm mute)                 |
_________________________________| 

Artist: Lynyrd Skynyrd
Song: I Ain't The One


FAST

|----------|-----------------------------------------|
|----------|-----------------------------------------|
|----------|--------2-----2-----------------2--------|
|----5-----|--2--------------------------------------|
|----3-----|--0-----------------3----4---------------|
|----------|-----------------------------------------|	

|----------------------------|-----------------------|
|----------------------------|-----------------------|
|-2-----2------------------2-|------2---2------------|
|----------------------------|-----------------------|
|--------------3-----4-------|-------------3--4---5--|
|----------------------------|-----------------------|	

|----------|-----------------------------------------|
|----------|-----------------------------------------|
|----------|--------2-----2-----------------2--------|
|----5-----|--2--------------------------------------|
|----3-----|--0-----------------3----4---------------|
|----------|-----------------------------------------|	
	
|------------------------|---------------------------|
|------------------------|---------------------------|
|----2----------------2--|-----------------------2---|
|------------------------|---------------------------|
|---------0---3---4------|-----0---0----3----4-------|
|------------------------|---------------------------|	

|-----------|----------------------------------------|
|-----------|----------------------------------------|
|-----------|------------------------------2---------|
|--7-----9--|--2---------------------------2---------|
|--5-----7--|--0------0----0----3---4----------------|
|-----------|----------------------------------------|	

|-----------|----------------------------------------|
|-----------|----------------------------------------|
|-5-----5---|-------------------------------2--------|
|-5-----5---|--2----------------------------2--------|
|-----------|--0-------0----0-----3---4--------------|
|-----------|----------------------------------------|
	
|------------|---------------------------------------|
|------------|---------------------------------------|
|------------|-------------------------------2-------|
|-----5------|--2----------------------------2-------|
|-----5------|--0-------0----0----3----4-------------|
|-----3------|---------------------------------------|	

|------------|---------------------------------------|
|------------|---------------------------------------|
|-----5------|--------------------------------2------|
|-----5------|--2-----------------------------2------|
|------------|--0------0-----0----3----4-------------|
|------------|---------------------------------------|	

|-------------------|--------------------------------|
|-------------------|--------------------------------|
|----5----------0---|---2----------------------2-----|
|----5----------0---|---2----------------------2-----|
|-------------------|---0-----0---0---3---4----------|
|-------------------|--------------------------------|
	
|-------------------|--------------------------------|
|-------------------|--------------------------------|
|----5---------5----|--2----------------------2------|
|----5---------5----|--2----------------------2------|
|-------------------|--0------0---0---3---4---0------|
|-------------------|--------------------------------|	

|-------------------|--------------------------------|
|-------------------|--------------------------------|
|-------------------|--2-----------------------2-----|
|--------------5----|--2-----------------------2-----|
|--------------5----|--0-----0---0---3---4-----------|
|--------------3----|--------------------------------|	

|-------------------|--------------------------------|
|-------------------|--------------------------------|
|----5--------5-----|--2----------------------2------|
|----5--------5-----|--2----------------------2------|
|-------------------|--0---0---0----3---4-----0------|
|-------------------|--------------------------------|
	
|-------------------|--------------------------------|
|-------------------|--------------------------------|
|-------------------|-------------------------10-----|
|-------------5-----|--7-----------7----------10-----|
|-------------5-----|--5-----------5-----------------|
|-------------3-----|--------------------------------|	

|-------------------|--------------------------------|
|-------------------|--------------------------------|
|--10-----9---7-----|--------------------10-----10---|
|--10-----9---7-----|--7--------7--------10-----10---|
|-------------------|--5--------5--------------------|
|-------------------|--------------------------------|	

|------------------------------|---------------------|
|------------------------------|---------------------|
|--10---10---10---10---10---12-|--------------------2|
|--10---10---10---10---10---12-|---------------------|
|------------------------------|--0----0---0---3--4--|
|------------------------------|---------------------|

    P 	   P
|----------------|-----------------------------------|
|----------------|-----------------------------------|
|----------------|--2---------------------------2----|
|----------------|--2---------------------------2----|
|--3^0------3^0--|--0-------0----0----3-----4---0----|
|----------------|-----------------------------------|	

|----------------|-----------------------------------|
|----------------|---5-------------------------------|
|----------------|---7-------------------------------|
|----------------|---6-------------------------------|
|----0-----------|---7-------5-----2-----4----5------|
|---------3------|-----------------------------------|	

                            H
|---------------------------------|
|---------------------------------|
|---------------------------------|
|---------------------------------|
|---2-----------------------2^4---|
|--------3---------4--------------|
	
                                          H
|-------------------------|--------------------------|
|-------------------------|--------------------------|
|-------------------------|--------------------------|
|-------------------------|--------------------------|
|-------5-----2----4----5-|--2------------2^4--------|
|--0----------------------|-----3----4---------------|	

                                          H
|-------------------------|--------------------------|
|-------------------------|--------------------------|
|-------------------------|--------------------------|
|-------------------------|--------------------------|
|-------5-----2----4----5-|--2------------2^4--------|
|--0----------------------|-----3----4---------------|	


                                         H
|-------------------------|--------------------------|
|-------------------------|--------------------------|
|-------------------------|--------------------------|
|-------------------------|--------------------------|
|-------5-----2----4----5-|--2------------2^4--------|
|--0----------------------|-----3----4---------------|	                                 H
|-------------------------|--------------------------|
|-------------------------|--------------------------|
|-------------------------|--------------------------|
|-------------------------|--------------------------|
|-------5-----2----4----5-|--2------------2^4--------|
|--0----------------------|-----3----4---------------|	

Repeat:
Suggest correction new What's this?
You can suggest a correction to this tab. Community and Mods will review your correction and vote to approve or reject it.
comments
We did not receive enough feedback on this tab! Please rate:
print report bad tab
1 2 3 4 5
guest
You may want to rate the tab now too:
select rating
Please do not post tabs as comments. Select "correction" instead!