Oops, an error
Loading. Please wait.

I Got The Same Old Blues Tab

version 1
version 1

Whole song

12,509 views 15 this week
2 commentsread comments
1 2 3 4 5
accurate
x 4
add to favorites
launch autoscroll
font size
0
reset
how to read this tab
guitar tuner
Autoscroll
slow
fast
+/-
esc
set tempo
stop
Help us to improve Ultimate-Guitar.com Take our survey!
×
Author
Tabbers playing skills
aig91 8,884
advanced +
Song: I Got the Same Old Blues
Artist: Lynyrd Skynyrd
Album: Gimme Back My Bullets


Intro w/slide

Riff 1 (A)
e-----------------------|---------------------|
B-----------------------|---------------2-----|
G------2----------2-----|---------------2-----|
D---------2--5^2-----2--|-----0^2-------2-----|
A---0-------------------|--3-------3^0--0-----|
E-----------------------|---------------------|

Repeat Riff 1 (A)
e-----------------------|---------------------|
B-----------------------|---------------2-----|
G------2----------2-----|---------------2-----|
D---------2--5^2-----2--|-----0^2-------2-----|
A---0-------------------|--3-------3^0--0-----|
E-----------------------|---------------------|

Riff 2 (D)
e-----------------------|---------------------|
B------3----------3-----|---------------3-----|
G---------2--5^2-----2--|-----0^2-------2-----|
D---0-------------------|--3-------3^0--0-----|
A-----------------------|---------------------|
E-----------------------|---------------------|

Riff 1 (A)
e-----------------------|---------------------|
B-----------------------|---------------2-----|
G------2----------2-----|---------------2-----|
D---------2--5^2-----2--|-----0^2-------2-----|
A---0-------------------|--3-------3^0--0-----|
E-----------------------|---------------------|

Riff 2 (D)
e-----------------------|---------------------|
B------3----------3-----|---------------3-----|
G---------2--5^2-----2--|-----0^2-------2-----|
D---0-------------------|--3-------3^0--0-----|
A-----------------------|---------------------|
E-----------------------|---------------------|

Riff 1 (A)
e-----------------------|---------------------|
B-----------------------|---------------2-----|
G------2----------2-----|---------------2-----|
D---------2--5^2-----2--|-----0^2-------2-----|
A---0-------------------|--3-------3^0--0-----|
E-----------------------|---------------------|
 
    G         Riff 3       F
e-----------------------|---------------------|
B---0-------------------|--1------------------|
G---0-------------------|--2------------------|
D---0-------------------|--3------------------|
A---2-------------------|--3------------------|
E-----------------------|---------------------|

Riff 1 (A)
e-----------------------|---------------------|
B-----------------------|---------------2-----|
G------2----------2-----|---------------2-----|
D---------2--5^2-----2--|-----0^2-------2-----|
A---0-------------------|--3-------3^0--0-----|
E-----------------------|---------------------|

Riff 4 (A)
e-----------------------|---------------------| This part is only 
B-----------------------|----------2----------| played during the intro
G------2----------2-----|----------2----------|
D---------2--5^2-----X--|--2^0-----2----------|
A---0-------------------|-------3--0----------|
E-----------------------|---------------------|


The verses are pretty much the same as the intro. The only
differnece is that you'll need to replace the last 2 measures
(riff 4) with these (riff 5).

Riff 5 (A)
e-----------------------|---------------------|
B-----------------------|--2------------------|
G------2----------2-----|--2------------------|
D---------2--5^2-----x--|--2------------------|
A---0-------------------|--0------------------|
E-----------------------|---------------------|


1st Lead - Play riff 1 = 4 times
           then play riff 2 = 2 times
           play riff 1 again = 2 times 
           play riff 3 = 1 time
           then riff 1 once followed by this (riff 6)

Riff 6 (A)
e---------------------|    This part is only played at the
B-----2-2-------------|    end of the first lead
G-----2-2-------------|    The harmonica solo (lead 2) is
D---2-2-2-------------|    the same as a verse
A---0-0-0-------------|
E---------------------|


Play the last verse the same as a normal verse with just a few changes...

After riff 3 play riff 1 twice, then riff 3, riff 1, 
riff 3, then riff 1. Then the song fades out. That's it.
Here are the lyrics. Hope it's right! 


Have you heard that rumor that's goin' around 
My baby's got a man, lord way across town 
Its the same old story 
Tell me where will it end 
Yes I heard the news its the same old blues again

Well I wrote you a letter, must have read it wrong 
Stood at the doorway and baby you was gone 
Took a lot of courage 
To let the telephone ring 
I got the same old blues, same old blues again

Well you gave me the business, though I didn't mind 
'Cause I got a lot of patience, Lord got a lot of time 
Its the same old story 
Tell me where will it end 
I got the same old blues, same old blues again 
Here come my blues

Lead 1

Gonna find me a mountain and gonna hide out 
Ain't talkin' to you babe, Lord I ain't comin' back 
Well I heard that rumor, tell where will it end 
I got the same old blues, same old blues again

Lead 2

Have you heard that rumor that's goin' around 
My baby's got a man, lord way across town 
Its the same old story 
Tell me where will this end 
Yes I heard the news its the same old blues again 
I got the same old blues, same old blues again

I got the blues... same old blues
Suggest correction
What's this?
You can suggest a correction to this tab. Community and Mods will review your correction and vote to approve or reject it.
comments
print report bad tab
2 comments total.
+2 reply
JI-HALL 781 wrote on April 8 2008, 01:41 pm

nice tab 5*

+2 reply
RickDe 1,666 wrote on July 17 2008, 02:19 pm

Nice work & your instructions make it easy.

guest
You may want to rate the tab now too:
select rating
Please do not post tabs as comments. Select "correction" instead!