Oops, an error
Loading. Please wait.

I Need You Tab

version 1
version 1

Whole song

Interactive

64,856 views 162 this week
1 commentread comment
1 2 3 4 5
excellent!
x 31
add to favorites
launch autoscroll
font size
0
reset
how to read this tab
guitar tuner
Autoscroll
slow
fast
+/-
esc
set tempo
stop
Help us to improve Ultimate-Guitar.com Take our survey!
×
Contributor
Tabbers playing skills
aig91 8,809
advanced +
Band: Lynyrd Skynyrd
Song: I Need You
Album: Second Helping (1974)

b= bend
r= return
h= hammer on
p= pull off
/= slide
'= hold bend 
*= harmonic

Intro:

e|---------------------------------8b-8-5*--------------------|
B|---------------8---------------------------8----------------|
G|-------5-7br-5---7b~---7br-5-7-------------7brp5------------|
D|-7---7-------------------------------------------7----------|
A|-0----------------------------------------------------------|
E|------------------------------------------------------------|

e|----------8-------------------------------------------------|
B|------------8h10----8h10p8----------------------------------|
G|----5h7/9------------------9-7----7----7-7-7-7-9------------|
D|-5h7---------------------------10----------------10-7-------|
A|------------------------------------------------------------|
E|------------------------------------------------------------|
                                          
e|-------------------------------------8b-8'-8'-8'-8brp5-5-----|
B|-13------13------13-------13---------------------------------|
G|-12brb---12br--9-12---12b----12br-9--------------------------|
D|-------------------------------------------------------------|
A|-------------------------------------------------------------|
E|-------------------------------------------------------------|

e|---7----5----8~-----5---------------------------------------|
B|-8----8----8------8---8-5-----------------------------------|
G|--------------------------7-5-7~---7br-5-7-5----------------|
D|---------------------------------------------5-7~-----------|
A|------------------------------------------------------------|
E|------------------------------------------------------------|


Guitar 2:
    Am            C               D               Am
e|--0----------|--0------------|----------------|------------------0-------|
B|--1----------|--1--1---------|--3--3----------|------------------3-------|
G|--2----------|--0--0---------|--2--0h2--0-----|----(2)-----------2-------|
D|--2----------|--2--0h2--0----|--0-------------|----(2)-------(0)---------|
A|--0------0-2-|--3----------3-|-------------3--|--0------2--3-------------|
E|-------------|---------------|----------------|----------------------3-0-|

    Am                                                       Am
e|----------------|--------------------|------------------|--0-------------|
B|----------------|--------------------|------------------|--1-------------|
G|----2-------2---|----2-------2-------|----2--------2----|--2-------------|
D|--2---2---2---2-|--2---2---2---2-----|--2---2----2---2--|--2-------------|
A|--0-------0-----|--0-------0---------|--0--------0------|--0-------------|
E|----------------|----------------0-3-|------------------|----------------|

Verse:

    Am              C               D                Am
e|---------------|--0------------|----------------|-----0---------0--0--0--|
B|---------------|--1--1---------|--3--3----------|-----1---------1--1--1--|
G|--2----2-------|--0--0---------|--2--0h2--0-----|--2--2---(0)---2--0--2--|
D|--2-------2----|--2--0h2--0----|--0-------------|--2--2---(0)---0--0--0--|
A|--0------------|--3----------3-|-------------3--|--0--0------------3--2--|
E|---------------|---------------|----------------|------------------------|

    Am            C                   D                Am
e|-------------|-------------------|----------------|-----5--5-5--5---5-5--|
B|-------------|--1----1-----------|--3--3----------|--2--5--5-5--5---5-5--|
G|--2----2-----|--0--0-------------|--2--0h2--0-----|--2--5--5h7--7---7p5--|
D|--2-------2--|--2--0h2--0--------|--0-------------|--0--7--5h7--7---7p5--|
A|--0----------|--3----------3-2-0-|-------------3--|-----7----5--5---5----|
E|-------------|-------------------|----------------|-----5----------------|

    Am            C                   D                Am
e|--0----------|--0----------------|----------------|--0------5---5--------|
B|--1----------|--1--1-------------|--3--3----------|--1------5---5--------|
G|--2--0h2-----|--0--0-------------|--2--0h2--0-----|--2------7---5--------|
D|--2----------|--2--0h2--0--------|--0-------------|--2------7---5--------|
A|--0------0-2-|--3----------3-----|-------------3--|--0------5------------|
E|-------------|-------------------|----------------|----------------------|

   Am                 C/G                D/F#     D/F        Am
e|------------------|------------------|------------------|--0---0---0-----|
B|----------1-------|----------1-------|-------3--------3-|--1---1---3-----|
G|-2-----2-----2----|-------0-----0----|----2--------2----|--2---2---2-----|
D|-2--2-----------2-|----2-----------2-|------------------|--2-------0-----|
A|-0----------------|------------------|------------------|--0-------------|
E|------------------|-3----------------|-2--------1-------|----------------|

Chorus:

    Am            C                   D                Am
e|--0----------|--0----------------|----------------|--0---0----0----0-----|
B|--1----------|--1--1-------------|--3--3----------|--1---0----1----3-----|
G|--2--0h2-----|--0--0-------------|--2--0h2--0-----|--2---2----2----2-----|
D|--2----------|--2--0h2--0--------|--0-------------|--2---2----2----0-----|
A|--0------0-2-|--3----------3-----|-------------3--|--0-------------------|
E|-------------|-------------------|----------------|----------------------|

    Am            C                   D                Am
e|--0----------|--0----------------|----------------|--0---3----2----2---0-|
B|--1----------|--1--1-------------|--3--3----------|--1---3----3----3---3-|
G|--2--0h2-----|--0--0-------------|--2--0h2--0-----|--2---2----2----2---2-|
D|--2----------|--2--0h2--0--------|--0-------------|--2---0----0----0---0-|
A|--0------0-2-|--3----------3-----|-------------3--|--0-------------------|
E|-------------|-------------------|----------------|----------------------|

1st guitar solo:

e|-----------15b-15'-15'r----------15---------------------|
B|-15br-------------------13---15b----15br-13h15----------|
G|------13------------------------------------------------|
D|--------------------------------------------------------|
A|--------------------------------------------------------|
E|--------------------------------------------------------|

e|-12---------------------15br----------------------------|
B|----13-15----13--------------13-------------------------|
G|----------14----12-14-----------14br(1 1/2)-------------|
D|--------------------------------------------------------|
A|--------------------------------------------------------|
E|--------------------------------------------------------|

e|--------------15-------15b~---15-12----12---------------|
B|-------13-15b----15-13--------------15----15-13-15------|
G|-12/14--------------------------------------------------|
D|--------------------------------------------------------|
A|--------------------------------------------------------|
E|--------------------------------------------------------|

e|-12-----------------------------------------------------|
B|----13-15----13-----------------------------------------|
G|----------14----12-14~----------------------------------|
D|--------------------------------------------------------|
A|--------------------------------------------------------|
E|--------------------------------------------------------|

Repeat Verse
Repeat Chours

2nd guitar solo:

e|-15b-15'-15-15b~---15-12--------------------------------|
B|-------------------------15br--13-----------------------|
G|-----------------------------------14-------------------|
D|--------------------------------------------------------|
A|--------------------------------------------------------|
E|--------------------------------------------------------|

e|--------------12---------12-----------------------------|
B|-/13-13-13-13----13-15------13-15----13-----------------|
G|----------------------------------14----12-14-----------|
D|--------------------------------------------------------|
A|--------------------------------------------------------|
E|--------------------------------------------------------|

e|-----------------------------8---------------8----------|
B|-13------13----13---------8---------------8-------------|
G|-12h14---12h14-12-9-7-5---7b---7brp5-7~---7b---7brp5----|
D|-----------------------------------------------------7--|
A|--------------------------------------------------------|
E|--------------------------------------------------------|

e|------------------------5-8-5~---5----------------------|
B|-------------/8-8-8-5-8------------8--------------------|
G|-5---7/9-----------------------------7-5-7--------------|
D|---7-----7----------------------------------------------|
A|--------------------------------------------------------|
E|--------------------------------------------------------|

e|-----------------------7----5----8----5----10----5------|
B|------8----8---------8----8----8----8----8-----8--------|
G|----5-7b-5-7b-5-----------------------------------------|
D|-/7-------------7~--------------------------------------|
A|--------------------------------------------------------|
E|--------------------------------------------------------|

e|--------------------------------------------------------|
B|-------------------5~~~---------------------------------|
G|-7brp5----4-5-7--5--------------------------------------|
D|-------7------------------------------------------------|
A|--------------------------------------------------------|
E|--------------------------------------------------------|

Repeat Verse
Repeat Chorus x 2

END

Lyrics:

Ain't no need to worry
Ain't no use to cry
'Cause I'll be comin' home soon
To keep you satisfied
You know I get so lonely
That I feel I can't go on
And it feels so good inside, baby
Just to call you on the telephone
I said...

(Chorus)
Ooh baby, I love you
What more can I say
Ooh baby, I need you
I miss you more everyday

I woke up early this morning
And sun came shining down
And it found me wishin' and hopin'
Mama, you could be around
Well ,you know that I need you
More than the air that I breathe
And I guess I'm just trying to tell you woman
Oh, what you mean to me

(Chorus)

I'm trying to tell you I love you
In each and every way
I'm trying to tell you I need you
Much more than just a piece of lay

(Chorus)

Ooh baby, I love love love love you
What more can I say
Ooh baby I need your sweet lovin
I miss you more and more every day

Ooh baby I love
Ooh baby baby I need
comments
print report bad tab
1 comment total.
0 reply
JI-HALL 780 wrote on April 10 2008, 02:32 pm

brillient tab

I want to post or [tab]
guest
You may want to rate the tab now too:
select rating
Please do not post tabs as comments. Select "correction" instead!