Oops, an error
Loading. Please wait.

Made In The Shade Bass Tab

740 views 1 this week
no commentswrite comment
1 2 3 4 5
2 more votes to show rating
add to favorites
launch autoscroll
font size
0
reset
guitar tuner
Autoscroll
slow
fast
+/-
esc
set tempo
stop
Help us to improve Ultimate-Guitar.com Take our survey!
×
G|---------------|
D|--5----------3-| x 3
A|-----5--3--5---|
E|---------------|

G|--------------------------------------------|
D|--5-----5-3-2-------------------------2-3-4-|
A|-----5--------5-3-----3-------3-----3-------|
E|-------------------3-----3-5-----3----------|

G|-------------------------------------------|
D|--5----------3-5----------3----------------|
A|-----5--3--5------5--3--5---5-----5----2-3-|
E|-------------------------------5-----5-----|

Wait till the lead to do this, listen for when it starts

G|-------------------------------------------|
D|--5-----5-----5-----5-----5-----5-----5----|
A|-----5-----5-----5-----5-----5-----5-----5-|
E|-------------------------------------------|

G|------------------------------------|
D|--5-3-2-----------------------2-3-4-|
A|--------5-3-----3-----3-----3-------|
E|-------------3-----3-----3----------|

G|---------------------------------------------------------|
D|--5----------3-5----------3----------------------2-3-4-5-|
A|-----5--3--5------5--3--5---5-----5----2-3-----3---------|
E|-------------------------------5-----5------3------------|

Wait a few seconds before playing this, and then start again
You'll need to listen for when to start

G|---------------|
D|--5----------3-| x 3
A|-----5--3--5---|
E|---------------|

G|--------------------------------------------|
D|--5-----5-3-2-------------------------2-3-4-|
A|-----5--------5-3-----3-------3-----3-------|
E|-------------------3-----3-5-----3----------|

G|-------------------------------------------------------|
D|--5----------3-5----------3----------------------2-3-4-| x 2
A|-----5--3--5------5--3--5---5-----5----2-3-----3-------|
E|-------------------------------5-----5------3----------|

G|---------------|
D|--5----------3-|
A|-----5--3--5---|
E|---------------|

G|-------------------|
D|--5----------------|
A|-----5-------3-2---|
E|-----------------5-|

G|-------------------------------------------|
D|--5-----5-----5-----5-----5-----5-----5----|
A|-----5-----5-----5-----5-----5-----5-----5-|
E|-------------------------------------------|

G|------------------------------------|
D|--5-3-2-----------------------2-3-4-|
A|--------5-3-----3-----3-----3-------|
E|-------------3-----3-----3----------|

G|-------------------------------------------------------|
D|--5----------3-5----------3----------------------2-3-4-|
A|-----5--3--5------5--3--5---5-----5----2-3-----3-------|
E|-------------------------------5-----5------3----------|

G|---------------|
D|--5----------3-| x 2
A|-----5--3--5---|
E|---------------|

G|-------|
D|--5----| < repeat till song ends
A|-----5-|
E|-------|
Suggest correction
Give kudos to tab author, rate the tab!
1 2 3 4 5
comments
print report bad tab
guest
You may want to rate the tab now too:
select rating
Wanna post a correction for this tab? Suggest correction