Oops, an error
Loading. Please wait.

Michelle Tab

797 views 6 this week
no commentswrite comment
1 2 3 4 5
please rate
add to favorites
launch autoscroll
font size
0
reset
how to read this tab
guitar tuner
Autoscroll
slow
fast
+/-
esc
set tempo
stop
Help us to improve Ultimate-Guitar.com Take our survey!
×
Contributor
Difficulty
intermediate
-------------------------------------------------------------------------------
                             Michelle - Lynyrd Skynyrd
-------------------------------------------------------------------------------
Tabbed by: Dylan (Allen1977)

Tuning: Standard EADGBe

I saw that there were no tabs to this rocking song, so I knew that I had to put my 
interpretation up on here.

| h   hammer-on
| p   pull-off
| v   vibrato
| b   Bend
| br  Bend release
| r   Release Bend
| H   Hold Bend

Main Riff: Repeat this through the verses.
   A             G             F#            F
e|---------------------------------------------------------------------------|
B|---------------------------------------------------------------------------|
G|----2-----2-------2-----2-------2-----2-------2----------------------------|
D|---------------------------------------------------------------------------|
A|-0------0---0-----------------------------------0-0-2-3--------------------|
E|---------------3------3---3--2------2---2--1-------------------------------|

Rhythm Guitar behind Solo 1: Repeat this through the first solo
   A         G          A         B
e|-5-5--5-5--3--3--3-3--5-5--5-5--7--7--7-7----------------------------------|
B|-5-5--5-5--3--3--3-3--5-5--5-5--7--7--7-7----------------------------------|
G|-6-6--6-6--4--4--4-4--6-6--6-6--8--8--8-8----------------------------------|
D|-7-7--7-7--5--5--5-5--7-7--7-7--9--9--9-9----------------------------------|
A|-7-7--7-7--5--5--5-5--7-7--7-7--9--9--9-9----------------------------------|
E|-5-5--5-5--3--3--3-3--5-5--5-5--7--7--7-7----------------------------------|

Solo 1

e|---------------------------------------------------------------------------|
B|----------------------------------5--8b-8b--8-5--8b-8H--8-5--8b-8H--8-5--8b|
G|-7b-7b--7-5--7b-5-------------5h7------------------------------------------|
D|-------------------7p5-7--5h7----------------------------------------------|
A|---------------------------------------------------------------------------|
E|---------------------------------------------------------------------------|

e|---------------------------------------------------------------------------|
B|-8H--8-5--8b-8H--8-5--8b-8H--8-5--8b-8H--8-5--8b-8H--8-5--8b-8H--8-5--10b--|
G|---------------------------------------------------------------------------|
D|---------------------------------------------------------------------------|
A|---------------------------------------------------------------------------|
E|---------------------------------------------------------------------------|
                                                                 I'm pretty sure
e|-------------------------8---------8--10b--10H--10H--10H--10r--10-8-10b-10-|
B|10H-10H--10bv---10brp8-----10---10-----------------------------------------|
G|-----------------------9---------------------------------------------------|
D|---------------------------------------------------------------------------|
A|---------------------------------------------------------------------------|
E|---------------------------------------------------------------------------|
this little lick is wrong. I'm still figuring it out.  
e|8h10-----10-8-10b-10-8h10-----10-8-10b-10-8h10-----10--12b-12b-12b-12b-12bv|
B|-----10-------------------10-------------------10--------------------------|
G|---------------------------------------------------------------------------|
D|---------------------------------------------------------------------------|
A|---------------------------------------------------------------------------|
E|---------------------------------------------------------------------------|

e|12v--12-10---------------------8p5---8p5---8p5---8p5---8p5---8p5---8p5--8p5|
B|-----------12-12b-10-12-10-10------5-----5-----5-----5-----5-----5-----5---|
G|---------------------------------------------------------------------------|
D|---------------------------------------------------------------------------|
A|---------------------------------------------------------------------------|
E|---------------------------------------------------------------------------|

I think the little rundown before the second solo goes like this.

e|---------------5-----------------------------------------------------------|
B|---------5-7-8-------------------------------------------------------------|
G|-----5-7-------------------------------------------------------------------|
D|-5-7-----------------------------------------------------------------------|
A|---------------------------------------------------------------------------|
E|---------------------------------------------------------------------------|

Rhythm Guitar Behind Solo 2: Repeat this through the second solo.
   A          G         F#         F
e|---------------------------------------------------------------------------|
B|---------------------------------------------------------------------------|
G|-2-2---2--2----------------------------------------------------------------|
D|-2-2---2--2-5--5--5-5-4-4---4--4-3--3--------------------------------------|
A|-0-0---0--0-5--5--5-5-4-4---4--4-3--3--0-0-2-3-----------------------------|
E|------------3--3--3-3-2-2---2--2-1--1--------------------------------------|

I don't know the second solo yet. Maybe I'll learn it one of these days.
Suggest correction What's this?
You can suggest a correction to this tab. Community and Mods will review your correction and vote to approve or reject it.
comments
We did not receive enough feedback on this tab! Please rate:
print report bad tab
1 2 3 4 5
I want to post or [tab]
guest
You may want to rate the tab now too:
select rating
Please do not post tabs as comments. Select "correction" instead!