Oops, an error
Loading. Please wait.

Red White And Blue tab

version 2
version 2

Whole song

Interactive

8,674 views 1 this week
3 commentsread comments
1 2 3 4 5
x 6
add to favorites
×
Save as Personal and add changes to this tab that will be seen only by you. Learn more ›
×
You can save this tab as Personal to edit and correct it or add notes. All changes will be seen only by you. Learn more »
launch autoscroll
font size
0
reset
how to read this tab
guitar tuner
edit
Autoscroll
slow
fast
+/-
esc
set tempo
stop
Author
Difficulty
#----------------------------------PLEASE NOTE---------------------------------#
#This file is the author's own work and represents their interpretation of the #
#song. You may only use this file for private study, scholarship, or research. #
#------------------------------------------------------------------------------##

                               RED, WHITE AND BLUE
                          As recorded by Lynyrd Skynyrd
                       (From the 2003 Album VICIOUS CYCLE)

Words and Music by Johnny Van Zant, Donnie Van Zant, Brad Warren & Brett Warren
Transcribed by DarQuo

         Asus2               Asus2/G             Dsus2/F#              Dsus2/F
      x 0 2 2 0 0          3 x 2 2 0 0          2 x 0 2 3 0          1 x 0 2 3 0

          A5                   E5                   Em                   D5
      x 0 2 2 x x          0 2 2 x x x          0 2 2 0 0 0          x x 0 2 3 x

         Dsus2                  D                   Bm                  Bsus2
      x x 0 2 3 0          x x 0 2 3 2          x 2 4 4 3 2          x 2 4 4 2 2

          G5                Asus2/F#                 F                    G
      3 x 0 0 3 3          2 x 2 2 0 0          1 3 3 2 x x          3 5 5 4 x x

          G6                  Aadd2                Em/D
      3 5 5 4 0 0          5 7 7 6 0 0          x x 0 0 0 0

Gtr I (Eb Ab Db Gb Bb Eb) - 'Gtr. I (elec. w/light dist.)'
Gtr II (Eb Ab Db Gb Bb Eb) - 'Gtr. II (12-string acous.)'
Gtr III (Eb Ab Db Gb Bb Eb) - 'Gtr. III (elec. w/dist.)'
Gtr IV (Eb Ab Db Gb Bb Eb) - 'Gtr. IV (elec. w/dist.)'
Gtr V (Eb Ab Db Gb Bb Eb) - 'Gtr. V (elec. w/dist.)'
Gtr VI (Eb Ab Db Gb Bb Eb) - 'Gtr. VI (elec. w/clean tone)'

 Intro (0:00)
  Rock Ballad Q=67
  Asus2                                 Asus2/G
 4/4
  Gtr I
  S S S S +S  S S S S S S S +S  S S S   S S S S +S  S S S S S S S +S  S S S
|-------0-(0)-------------0-(0)-------|-------0-(0)-------------0-(0)-------|
|-------------0-----------------0-----|-------------0-----------------0-----|
|-----2---------2-------2---------2---|-----2---------2-------2---------2---|
|---2-------------2---2-------------2-|---2-------------2---2-------------0-|
|-0-----------------0-----------------|-------------------------------------|
|-------------------------------------|-3-----------------3-----------------|


  Dsus2/F#          Dsus2/F
  S S S S +S  S S S S S S S +S  S S S
|-------0-(0)-------------0-(0)-------|
|-------------3-----------------3-----|
|-----2---------2-------2---------2---|
|---0-------------0---0-------------0-|
|-------------------------------------|
|-2-----------------1-----------------|


  Asus2
                                        Gtrs I, II
  S S S S +S  S S S S S S S +S  S S S   S S S S +S  S S S S S S S +S  S S S
|-------0-(0)-------------0-(0)-------|-------0-(0)-------------0-(0)-------|
|-------------0-----------------0-----|-------------0-----------------0-----|
|-----2---------2-------2---------2---|-----2---------2-------2---------2---|
|---2-------------2---2-------------2-|---2-------------2---2-------------2-|
|-0-----------------0-----------------|-0-----------------0-----------------|
|-------------------------------------|-------------------------------------|


  Asus2/G                               Dsus2/F#          Dsus2/F
  S S S S +S  S S S S S S S +S  S S S   S S S S +S  S S S S S S S +S  S S S
|-------0-(0)-------------0-(0)-------|-------0-(0)-------------0-(0)-------|
|-------------0-----------------0-----|-------------3-----------------3-----|
|-----2---------2-------2---------2---|-----2---------2-------2---------2---|
|---2-------------2---2-------------0-|---0-------------0---0-------------0-|
|-------------------------------------|-------------------------------------|
|-3-----------------3-----------------|-2-----------------1-----------------|


  Asus2
  S S S S +S  S S S S S S S +S  S S S
|-------0-(0)-------------0-(0)-------||
|-------------0-----------------0-----||
|-----2---------2-------2---------2---||
|---2-------------2---2-------------2-||
|-0-----------------0-----------------||
|-------------------------------------||


 1st Verse (0:28)
  Asus2                                 Asus2/G
  S S S S +S  S S S S S S S +S  S S S   S S S S +S  S S S S S S S +S  S S S
|-------0-(0)-------------0-(0)-------|-------0-(0)-------------0-(0)-------|
|-------------0-----------------0-----|-------------0-----------------0-----|
|-----2---------2-------2---------2---|-----2---------2-------2---------2---|
|---2-------------2---2-------------2-|---2-------------2---2-------------0-|
|-0-----------------0-----------------|-------------------------------------|
|-------------------------------------|-3-----------------3-----------------|


  Dsus2/F#          Dsus2/F             Asus2
  S S S S +S  S S S S S S S +S  S S S   S S S S +S  S S S S S S S +S  S S S
|-------0-(0)-------------0-(0)-------|-------0-(0)-------------0-(0)-------|
|-------------3-----------------3-----|-------------0-----------------0-----|
|-----2---------2-------2---------2---|-----2---------2-------2---------2---|
|---0-------------0---0-------------0-|---2-------------2---2-------------2-|
|-------------------------------------|-0-----------------0-----------------|
|-2-----------------1-----------------|-------------------------------------|


  Asus2                                 Asus2/G
  S S S S +S  S S S S S S S +S  S S S   S S S S +S  S S S S S S S +S  S S S
|-------0-(0)-------------0-(0)-------|-------0-(0)-------------0-(0)-------|
|-------------0-----------------0-----|-------------0-----------------0-----|
|-----2---------2-------2---------2---|-----2---------2-------2---------2---|
|---2-------------2---2-------------2-|---2-------------2---2-------------0-|
|-0-----------------0-----------------|-------------------------------------|
|-------------------------------------|-3-----------------3-----------------|


  Dsus2/F#          Dsus2/F             Asus2
  S S S S +S  S S S S S S S +S  S S S   S S S S +S  S S S S S S S +S  S S S
|-------0-(0)-------------0-(0)-------|-------0-(0)-------------0-(0)-------||
|-------------3-----------------3-----|-------------0-----------------0-----||
|-----2---------2-------2---------2---|-----2---------2-------2---------2---||
|---0-------------0---0-------------0-|---2-------------2---2-------------2-||
|-------------------------------------|-0-----------------0-----------------||
|-2-----------------1-----------------|-------------------------------------||


 1st Chorus (0:57)
  Asus2                              Em
  Gtr II
   E S S S S S S  S  S S S  E  S S    E  S S S  S S S S  S S S  E    S S
   | | | | | | |  |  | | |  |  | |    |  | | |  | | | |  | | |  |    | |
   / / / / / / /  /  / / /  /  / /    /  / / /  / / / /  / / /  /    / /

  Gtr I
   Q     Q       +E.     S +E  E      E.   S E.     S E.     S +S  E   S
|----------------------------------|-------------------------------------|
|----------------------------------|-------------------------------------|
|------------------------2-(2)-2---|-----------------------------------0-|
|--2-----2-------(2)-----x-(x)-2---|--2------2--------2------------2---0-|
|--0-----0-------(0)-----0-(0)-0---|--2------2--------2------------2-----|
|----------------------------------|--0----0-0------0-0------0-(0)-0-----|
|
| Gtr III
|  W                                  W
|-^0-------------------------------|-^0----------------------------------|
|-^0-------------------------------|-^0----------------------------------|
|-^2-------------------------------|-^0----------------------------------|
|-^2-------------------------------|-^2----------------------------------|
|-^0-------------------------------|-^2----------------------------------|
|----------------------------------|-^0----------------------------------|


  Dsus2        D     Dsus2 D     Em/D
    E  S S E S S  S  S S S  E    S S
    |  | | | | |  |  | | |  |    | |
    /  / / / / /  /  / / /  /    / /

    Q      Q     +E.     S +S  S S S
|------------------------------------|
|---3------3-----(3)-----3-(3)-3-0-0-|
|---2------2-----(2)-----2-(2)-2-0-0-|
|---0------0-----(0)-----0-(0)-0-0-0-|
|------------------------------------|
|------------------------------------|
|
|   W
|-^-0--------------------------------|
|-^-3--------------------------------|
|-^-2--------------------------------|
|-^-0--------------------------------|
|-^(0)-------------------------------|
|------------------------------------|


  Asus2                               Em
   E  S S S S S S S S S S  E    S S    E S S S  S S S S S S S  S  S E
   |  | | | | | | | | | |  |    | |    | | | |  | | | | | | |  |  | |
   /  / / / / / / / / / /  /    / /    / / / /  / / / / / / /  /  / /

   E.   S S S S S Q       +S  E   S    Q     E.     S Q       +E    E
|-----------------------------------|----------------------------------|
|-----------3-----------------------|----------------------------------|
|--2------------2-------------2-----|----------------------------------|
|--2----2h4---2---2-------(2)-2-----|--2-----2------2-2-------(2)------|
|--0--------------0-------(0)-------|--2-----2------2-2-------(2)---0--|
|---------------------------------0-|--0-----0------0-0-------(0)------|
|
|  W                                   W
|-^0--------------------------------|-^0-------------------------------|
|-^0--------------------------------|-^0-------------------------------|
|-^2--------------------------------|-^0-------------------------------|
|-^2--------------------------------|-^2-------------------------------|
|-^0--------------------------------|-^2-------------------------------|
|-----------------------------------|-^0-------------------------------|


  Bm         Bsus2                 Em/DG5
   E   S S S S S S  E    S S E   S S
   |   | | | | | |  |    | | |   | |
   /   / / / / / /  /    / / /   / /

   S S S S S S S S +S  S S S S S S S
|----------------2-(2)---------------|
|--------3p2-----------2-------------|
|------4-----4-----------4-----4-----|
|----4---------4-----------4---------|
|--2-------------------------2-------|
|--------------------------------0-2-|
|
|  W
|-^2---------------------------------|
|-^3---------------------------------|
|-^4---------------------------------|
|-^4---------------------------------|
|-^2---------------------------------|
|-^2---------------------------------|
|
|    Gtr IV
|  W
|------------------------------------|
|------------------------------------|
|------------------------------------|
|------------------------------------|
|------------------------------------|
|------------------------------------|


                                         D          Dsus2 D
   E S S  S  S S S  S  S S S  S  S S S    E S S  S  S S S  H
   | | |  |  | | |  |  | | |  |  | | |    | | |  |  | | |  |
   / / /  /  / / /  /  / / /  /  / / /    / / /  /  / / /  /

   E S S  E    S S +Q        +S  S S S    Q     +S  S S S  H
|----------------3-(3)-------(3)-------|--2-----(2)-0-0-0--2----------|
|---------3----------------------3-----|--3-----(3)-3-3-3--3----------|
|------0-------0-------------------0-0-|--2-----(2)-2-2-2--2----------|
|----0-----------------------------0-0-|--0-----(0)-0-0-0--0----------|
|--------------------------------------|------------------------------|
|--3-----------------------------------|------------------------------|
|
|  W                                      W
|-^3-----------------------------------|-^2---------------------------|
|-^3-----------------------------------|-^3---------------------------|
|-^0-----------------------------------|-^2---------------------------|
|-^0-----------------------------------|-^0---------------------------|
|-^x-----------------------------------|-^0---------------------------|
|-^3-----------------------------------|------------------------------|
|
|  Q      H.                              Q      Q        +E  +Q.
|--------------------------------------|------------------------------|
|--------------------------------------|------------------------------|
|--------------------------------------|------------------------------|
|--------/5----------------------------|------------------------------|
|--------------------------------------|--------/5--------(5)-(5)\----|
|--------------------------------------|------------------------------|


  Asus2                                 Asus2/G
  Gtrs I, II
   S S S S +S  S S S S S S S +S S S S   S S S S +S  S S S  S  S S S +S S S S
|--------0-(0)-------------0-(0)------|-------0-(0)---------------0-(0)------|
|--------------0----------------0-----|-------------0------------------0-----|
|------2---------2-------2--------2---|-----2---------2---------2--------2---|
|----2-------------2---2------------2-|---2-------------2-----2------------0-|
|--0-----------------0----------------|--------------------------------------|
|-------------------------------------|-3------------------3-----------------|
|
| Gtr III
|  W                                    H.                          +S S S S
|-^0----------------------------------|--------------------------------0-----|
|-^0----------------------------------|-0---------------------------(0)--0---|
|-^2----------------------------------|-2---------------------------(2)----0-|
|-^2----------------------------------|-2---------------------------(2)------|
|-^0----------------------------------|-0---------------------------(0)------|
|-------------------------------------|--------------------------------------|
|
| Gtr IV
|  H                 Q        S S S S   E.    S +E    E   +Q         S S S S
|-------------------------------------|--------------------------------------|
|-------------------------------------|--------------------------------------|
|-----------------------------7s6-----|-7s====6-(6)------------------7s6-----|
|---------------------------------7---|---------------7---(7)------------7---|
|-----------------------------------7-|------------------------------------7-|
|-------------------------------------|--------------------------------------|


  Dsus2/F#          Dsus2/F               Asus2
  S S S S +S  S S S  S  S S S +S S  S S    S  S S S +S  S S S   S   S S S +S  S S S
|-------0-(0)---------------0-(0)-------|---------0-(0)-----------------0-(0)----------||
|-------------3------------------3------|---------------0---------------------0--------||
|-----2---------2---------2---------2---|-------2---------2-----------2---------2------||
|---0-------------0-----0-------------0-|-----2-------------2-------2-------------2----||
|---------------------------------------|--0--------------------0----------------------||
|-2------------------1------------------|----------------------------------------------||
|
| W                                       +W
|---------------------------------------|----------------------------------------------||
|---------------------------------------|----------------------------------------------||
|-2-------------------------------------|-(2)------------------------------------------||
|-2-------------------------------------|-(2)------------------------------------------||
|-0-------------------------------------|-(0)------------------------------------------||
|---------------------------------------|----------------------------------------------||
|
| E.    S +E    E   +E    E    E    E      H                   +H
|---------------------------------------|----------------------------------------------||
|-----------------------------10s==12s==|=10------------------(10)\--------------------||
|-7s====6-(6)---------------------------|----------------------------------------------||
|---------------7---(7)-----------------|----------------------------------------------||
|---------------------------------------|----------------------------------------------||
|---------------------------------------|----------------------------------------------||


 2nd Verse (1:39)
  Asus2                                 Asus2/G
  Gtrs I, II
  S S S S +S  S S S S S S S +S  S S S   S S S S +S  S S S S S S S +S  S S S
|-------0-(0)-------------0-(0)-------|-------0-(0)-------------0-(0)-------|
|-------------0-----------------0-----|-------------0-----------------0-----|
|-----2---------2-------2---------2---|-----2---------2-------2---------2---|
|---2-------------2---2-------------2-|---2-------------2---2-------------0-|
|-0-----------------0-----------------|-------------------------------------|
|-------------------------------------|-3-----------------3-----------------|


  Dsus2/F#          Dsus2/F
  S S S S +S  S S S S S S S +S  S S S
|-------0-(0)-------------0-(0)-------|
|-------------3-----------------3-----|
|-----2---------2-------2---------2---|
|---0-------------0---0-------------0-|
|-------------------------------------|
|-2-----------------1-----------------|
|
| W
|-------------------------------------|
|-------------------------------------|
|-------------------------------------|
|-------------------------------------|
|-------------------------------------|
|-------------------------------------|
|
| W
|-------------------------------------|
|-------------------------------------|
|-------------------------------------|
|-------------------------------------|
|-------------------------------------|
|-------------------------------------|


  Asus2
   S  S S S   +S  S S  S    S  S S S +S  S    S   S
|---------0---(0)------------------0-(0)-------------|
|-----------------0----------------------0-----------|
|-------2-----------2------------2------------2------|
|-----2----------------2-------2------------------2--|
|--0------------------------0------------------------|
|----------------------------------------------------|
|
| Gtr III
|  H.                                 S  E.
|-^0----------------------------------0--------------|
|-^0-------------------------------------0-----------|
|-^2-------------------------------------------------|
|-^2-------------------------------------------------|
|-^0-------------------------------------------------|
|----------------------------------------------------|
|
| Gtr IV
|  E.     S a  S  S S  S a  Q.               +E
|----------------------------------------------------|
|----------------------------------------------------|
|-----------------9-9h11-----------------------------|
|-----------9s11---------9h11---------------(11)\----|
|---------7------------------------------------------|
|----------------------------------------------------|


  Asus2                                 Asus2/G
  S S S S +S  S S S S S S S +S  S S S    S  S S S +S  S S S S S S S +S  S S S
|-------0-(0)-------------0-(0)-------|---------0-(0)-------------0-(0)-------|
|-------------0-----------------0-----|---------------0-----------------0-----|
|-----2---------2-------2---------2---|-------2---------2-------2---------2---|
|---2-------------2---2-------------2-|-----2-------------2---2-------------0-|
|-0-----------------0-----------------|---------------------------------------|
|-------------------------------------|--3------------------3-----------------|
|
| W                                     +W
|-------------------------------------|---------------------------------------|
|-------------------------------------|---------------------------------------|
|-2-----------------------------------|-(2)-----------------------------------|
|-2-----------------------------------|-(2)-----------------------------------|
|-0-----------------------------------|-(0)-----------------------------------|
|-------------------------------------|---------------------------------------|
|
| W                                      W
|-------------------------------------|---------------------------------------|
|-------------------------------------|---------------------------------------|
|-------------------------------------|---------------------------------------|
|-------------------------------------|---------------------------------------|
|-------------------------------------|---------------------------------------|
|-------------------------------------|---------------------------------------|


  Dsus2/F#          Dsus2/F
  S S S S +S  S S S S S S S +S  S S S
|-------0-(0)-------------0-(0)-------|
|-------------3-----------------3-----|
|-----2---------2-------2---------2---|
|---0-------------0---0-------------0-|
|-------------------------------------|
|-2-----------------1-----------------|
|
| W
|-------------------------------------|
|-------------------------------------|
|-------------------------------------|
|-------------------------------------|
|-------------------------------------|
|-------------------------------------|
|
| W
|-------------------------------------|
|-------------------------------------|
|-------------------------------------|
|-------------------------------------|
|-------------------------------------|
|-------------------------------------|


  Asus2
  S S S S +S  S S S  S  S  S  S +S  S S S
|-------0-(0)-----------------0-(0)-------||
|-------------0---------------------0-----||
|-----2---------2----------2----------2---||
|---2-------------2-----2---------------2-||
|-0------------------0--------------------||
|-----------------------------------------||
|
| W
|-----------------------------------------||
|-----------------------------------------||
|-----------------------------------------||
|-----------------------------------------||
|-----------------------------------------||
|-----------------------------------------||
|
| H                  S  S  S  S  Q
|-----------------------------------------||
|-------------------15s14s15s14-----------||
|-------------------------------14--------||
|-----------------------------------------||
|-----------------------------------------||
|-----------------------------------------||


 2nd Chorus (2:08)
  Asus2                              Em
  Gtr II
   E S S S S S S  S  S S S  E  S S    E  S S S  S S S S  S S S  E    S S
   | | | | | | |  |  | | |  |  | |    |  | | |  | | | |  | | |  |    | |
   / / / / / / /  /  / / /  /  / /    /  / / /  / / / /  / / /  /    / /

  Gtr I
   Q     Q       +E.     S +E  E      E.   S E.     S E.     S +S  E   S
|----------------------------------|-------------------------------------|
|----------------------------------|-------------------------------------|
|------------------------2-(2)-2---|-----------------------------------0-|
|--2-----2-------(2)-----x-(x)-2---|--2------2--------2------------2---0-|
|--0-----0-------(0)-----0-(0)-0---|--2------2--------2------------2-----|
|----------------------------------|--0----0-0------0-0------0-(0)-0-----|
|
| Gtrs III, IV
|  W                                  W
|-^0-------------------------------|-^0----------------------------------|
|-^0-------------------------------|-^0----------------------------------|
|-^2-------------------------------|-^0----------------------------------|
|-^2-------------------------------|-^2----------------------------------|
|-^0-------------------------------|-^2----------------------------------|
|----------------------------------|-^0----------------------------------|


  Dsus2        D     Dsus2 D     Em/D
    E  S S E S S  S  S S S  E    S S
    |  | | | | |  |  | | |  |    | |
    /  / / / / /  /  / / /  /    / /

    Q      Q     +E.     S +S  S S S
|------------------------------------|
|---3------3-----(3)-----3-(3)-3-0-0-|
|---2------2-----(2)-----2-(2)-2-0-0-|
|---0------0-----(0)-----0-(0)-0-0-0-|
|------------------------------------|
|------------------------------------|
|
|   W
|-^-0--------------------------------|
|-^-3--------------------------------|
|-^-2--------------------------------|
|-^-0--------------------------------|
|-^(0)-------------------------------|
|------------------------------------|


  Asus2                               Em
   E  S S S S S S S S S S  E    S S    E S S S  S S S S S S S  S  S E
   |  | | | | | | | | | |  |    | |    | | | |  | | | | | | |  |  | |
   /  / / / / / / / / / /  /    / /    / / / /  / / / / / / /  /  / /

   E.   S S S S S Q       +S  E   S    Q     E.     S Q       +E    E
|-----------------------------------|----------------------------------|
|-----------3-----------------------|----------------------------------|
|--2------------2-------------2-----|----------------------------------|
|--2----2h4---2---2-------(2)-2-----|--2-----2------2-2-------(2)------|
|--0--------------0-------(0)-------|--2-----2------2-2-------(2)---0--|
|---------------------------------0-|--0-----0------0-0-------(0)------|
|
|  W                                   W
|-^0--------------------------------|-^0-------------------------------|
|-^0--------------------------------|-^0-------------------------------|
|-^2--------------------------------|-^0-------------------------------|
|-^2--------------------------------|-^2-------------------------------|
|-^0--------------------------------|-^2-------------------------------|
|-----------------------------------|-^0-------------------------------|


  Bm         Bsus2                      G5
   E   S S S S  S S  E    S S E   S S    E S S  S  S S S  S  S S S  S  S S S
   |   | | | |  | |  |    | | |   | |    | | |  |  | | |  |  | | |  |  | | |
   /   / / / /  / /  /    / / /   / /    / / /  /  / / /  /  / / /  /  / / /

   S S S S S S  S S +S  S S S S S S S    E S S  E    S S +Q        +S  S S S
|-----------------2-(2)---------------|----------------3-(3)-------(3)-------|
|--------3p2------------2-------------|---------3----------------------3-----|
|------4-----4------------4-----4-----|------0-------0-------------------0-0-|
|----4----------4-----------4---------|----0-----------------------------0-0-|
|--2--------------------------2-------|--------------------------------------|
|---------------------------------0-2-|--3-----------------------------------|
|
|                                       Gtr III
|  W                                     W
|-^2----------------------------------|-^3-----------------------------------|
|-^3----------------------------------|-^3-----------------------------------|
|-^4----------------------------------|-^0-----------------------------------|
|-^4----------------------------------|-^0-----------------------------------|
|-^2----------------------------------|-^x-----------------------------------|
|-^2----------------------------------|-^3-----------------------------------|
|
| Gtr VI                                Gtr IV
|  S S S S S S  S S  S  S S S E   E      Q      H.
|--7-----9-----10-------9-----7-------|--------------------------------------|
|----7-----7------7-------7-----------|--------------------------------------|
|------7-----7-------7------7---------|--------------------------------------|
|-------------------------------------|--------/5----------------------------|
|-------------------------------------|--------------------------------------|
|-------------------------------------|--------------------------------------|


  D          Dsus2 D              Dsus2
   E S S  S  S S S  S  S  S   S S S S S
   | | |  |  | | |  |  |  |   | | | | |
   / / /  /  / / /  /  /  /   / / / / /

   Q     +S  S S S  H
|--2-----(2)-0-0-0--2---------------------|
|--3-----(3)-3-3-3--3---------------------|
|--2-----(2)-2-2-2--2---------------------|
|--0-----(0)-0-0-0--0---------------------|
|-----------------------------------------|
|-----------------------------------------|
|
|  W
|-^2--------------------------------------|
|-^3--------------------------------------|
|-^2--------------------------------------|
|-^0--------------------------------------|
|-^0--------------------------------------|
|-----------------------------------------|
|
|  Q      Q        +E    +Q.
|-----------------------------------------|
|-----------------------------------------|
|-----------------------------------------|
|-----------------------------------------|
|--------/5--------(5)---(5)\-------------|
|-----------------------------------------|


                                       Piano Solo (2:40)
  Asus2
   E S S  E    S S  S  S S S S S S S    E   S S E S S +S S S S  E  E
   | | |  |    | |  |  | | | | | | |    |   | | | | |  | | | |  |  |
   / / /  /    / /  /  / / / / / / /    /   / / / / /  / / / /  /  /

                                        Gtrs I, III
   Q     +S  S E   +S  S S S E   E      S S S S Q      S S S S +Q
|------------------------------------||---------0------0--------------|
|------------------------------------||-------0----------0------------|
|--2-----(2)-2-2---(2)-2-2-2-2---2---||-----2--------------2----------|
|--2-----(2)-2-2---(2)-2-2-2-2---2---||-2-2------------------2-(2)----|
|--0-----(0)-0-0---(0)-0-0-0-0---0---||-0-----------------------------|
|------------------------------------||-------------------------------|
|
| Gtrs III, V
|  W                                    W
|-^0---------------------------------||-------------------------------|
|-^0---------------------------------||-------------------------------|
|-^2---------------------------------||-------------------------------|
|-^2---------------------------------||-------------------------------|
|-^0---------------------------------||-------------------------------|
|------------------------------------||-------------------------------|


  Asus2/G                          Asus2/F#
  E   S S E S S +S S S S  S  S E   E   S S E S S +S S S S  S  S E
  |   | | | | |  | | | |  |  | |   |   | | | | |  | | | |  |  | |
  /   / / / / /  / / / /  /  / /   /   / / / / /  / / / /  /  / /

  S S S S Q      S S S S +Q        S S S S Q      S S S S +Q
|---------0------0---------------|---------0------0---------------|
|-------0----------0-------------|-------0----------0-------------|
|-----2--------------2-----------|-----2--------------2-----------|
|---2------------------2-(2)-----|---2------------------2-(2)-----|
|--------------------------------|--------------------------------|
|-3------------------------------|-2------------------------------|
|
| W                                W
|--------------------------------|--------------------------------|
|--------------------------------|--------------------------------|
|--------------------------------|--------------------------------|
|--------------------------------|--------------------------------|
|--------------------------------|--------------------------------|
|--------------------------------|--------------------------------|


  F                 G
  E  S S E S S   S  S S S S S S S
  |  | | | | |   |  | | | | | | |
  /  / / / / /   /  / / / / / / /

  E.   S E S S a E.     S E   S S
|----------------------------------||
|----------------------------------||
|----------------------------------||
|----------------------------------||
|-3----3-3-3-3-3S5------5-5--------||
|-1----1-1-0-1-1S3------3-3---0-0--||
|
| Gtr VI
| H              H
|----------------------------------||
|----------------------------------||
|----------------2/----------------||
|----------------------------------||
|----------------------------------||
|----------------------------------||


 1st Guitar Solo (2:54)
  Asus2                                            Asus2/G
   E     S  S  E     S  S  +S  S S S   E   E        E     S  S  E     S  S  +S  S S S   S   S E
   |     |  |  |     |  |   |  | | |   |   |        |     |  |  |     |  |   |  | | |   |   | |
   /     /  /  /     /  /   /  / / /   /   /        /     /  /  /     /  /   /  / / /   /   / /

   S  S  S  S  Q            S  S S S  +Q            S  S  S  S  Q            S  S S S  +Q
|--------------0------------0--------------------|--------------0------------0----------------------|
|-----------0------------------0-----------------|-----------0------------------0-------------------|
|--------2-----------------------2---------------|--------2-----------------------2-----------------|
|--2--2----------------------------2--(2)--------|-----2----------------------------2--(2)----------|
|--0---------------------------------------------|--------------------------------------------------|
|------------------------------------------------|--3-----------------------------------------------|
|
| Gtr IV
|  S  S  S  S  S  S  S  S  +Q         +E.      S    S  S  S  S  S  S  S  S  +Q         +E.        S
|------------------------------------------------|----------------------17-(17)-------(17)\---------|
|-15S14S15S14S15S14------------------------------|-15S14S15S14S15S14S17-------------------------/13-|
|-------------------14-14-(14)-------(14)\---/14-|--------------------------------------------------|
|------------------------------------------------|--------------------------------------------------|
|------------------------------------------------|--------------------------------------------------|
|------------------------------------------------|--------------------------------------------------|


  Asus2/F#
    E      S  S  E     S  S  +S   S S  S   S   S  E
    |      |  |  |     |  |   |   | |  |   |   |  |
    /      /  /  /     /  /   /   / /  /   /   /  /

    S  S   S  S  Q            S   S S  S  +Q
|----------------0------------0-------------------------|
|-------------0-------------------0---------------------|
|----------2------------------------2-------------------|
|------2-------------------------------2--(2)-----------|
|-------------------------------------------------------|
|---2---------------------------------------------------|
|
|  +E      E     S  S  S  S  +S   E    S  +E      S  S
|--------------------------------17---------------------|
|-(13)--------------------------------17-(17)\---11s13--|
|--------[14]---14s12----14-(14)------------------------|
|---------------------14--------------------------------|
|-------------------------------------------------------|
|-------------------------------------------------------|


  F                          G                       Asus2
   E  S S   E  S  S       S   S     S S  S S  S  S     W
   |  | |   |  |  |       |   |     | |  | |  |  |     |
   /  / /   /  /  /       /   /     / /  / /  /  /     /

   E.   S   E  S  S    a  E.          S  E    S  S     W
|--------------------------------------------------|------------------||
|--------------------------------------------------|------------------||
|--------------------------------------------------|---2--------------||
|--------------------------------------------------|---2--------------||
|--3----3---3--3--3----3S=5-----------5--5---------|---0--------------||
|--1----1---1--0--1----1S=3-----------3--3----0--0-|------------------||
|
|  ~~~~~~~~~~~~                                        ~~~~
|  Q       +E.    T  T    S   S  a  E    E    S  S    +H      +H
|--------------------------------------------------|------------------||
|--------------------------------------------------|------------------||
|-14------(14)---12-12---12--12--------------------|------------------||
|-------------------------------14s12---10---------|------------------||
|--------------------------------------------12-12-|-(12)----(12)\----||
|--------------------------------------------------|------------------||


 3rd Verse (3:12)
  Asus2                                 Asus2/G
  Gtrs I, II
  S S S S +S  S S S S S S S +S  S S S   S S S S +S  S S S S S S S +S  S S S
|-------0-(0)-------------0-(0)-------|-------0-(0)-------------0-(0)-------|
|-------------0-----------------0-----|-------------0-----------------0-----|
|-----2---------2-------2---------2---|-----2---------2-------2---------2---|
|---2-------------2---2-------------2-|---2-------------2---2-------------0-|
|-0-----------------0-----------------|-------------------------------------|
|-------------------------------------|-3-----------------3-----------------|


  Dsus2/F#          Dsus2/F             Asus2
  S S S S +S  S S S S S S S +S  S S S   S S S S +S  S S S S S S S +S  S S S
|-------0-(0)-------------0-(0)-------|-------0-(0)-------------0-(0)-------|
|-------------3-----------------3-----|-------------0-----------------0-----|
|-----2---------2-------2---------2---|-----2---------2-------2---------2---|
|---0-------------0---0-------------0-|---2-------------2---2-------------2-|
|-------------------------------------|-0-----------------0-----------------|
|-2-----------------1-----------------|-------------------------------------|


  Asus2                                 Asus2/G
  S S S S +S  S S S S S S S +S  S S S   S S S S +S  S S S S S S S +S  S S S
|-------0-(0)-------------0-(0)-------|-------0-(0)-------------0-(0)-------|
|-------------0-----------------0-----|-------------0-----------------0-----|
|-----2---------2-------2---------2---|-----2---------2-------2---------2---|
|---2-------------2---2-------------2-|---2-------------2---2-------------0-|
|-0-----------------0-----------------|-------------------------------------|
|-------------------------------------|-3-----------------3-----------------|


  Dsus2/F#          Dsus2/F
  S S S S +S  S S S S S  S S  +S  S S S
|-------0-(0)--------------0--(0)-------|
|-------------3-------------------3-----|
|-----2---------2--------2----------2---|
|---0-------------0---0---------------0-|
|---------------------------------------|
|-2-----------------1-------------------|
|
| Gtr IV
|                        <
| H                 E    E    +Q
|---------------------------------------|
|-----------------------26---(26)-------|
|-----------------------26---(26)-------|
|-----------------------26---(26)-------|
|---------------------------------------|
|---------------------------------------|
|
| W
|---------------------------------------|
|---------------------------------------|
|---------------------------------------|
|---------------------------------------|
|---------------------------------------|
|---------------------------------------|


  Asus2
   S  S S S +S  S S S S S S S +S  S S S
|---------0-(0)-------------0-(0)-------|
|---------------0-----------------0-----|
|-------2---------2-------2---------2---|
|-----2-------------2---2-------------2-|
|--0------------------0-----------------|
|---------------------------------------|
|
|  W
|---------------------------------------|
|-\x\-----------------------------------|
|-\x\-----------------------------------|
|-\x\-----------------------------------|
|---------------------------------------|
|---------------------------------------|
|
| Gtr V
|  <
|  PM---------------------|
|  S  S S S  S  S S S S S S S  S  S S S
|---------------------------------------|
|---------------------------------------|
|--2--2-2-2--2--2-2-2-2-2-2-2--2--2-2-2-|
|--2--2-2-2--2--2-2-2-2-2-2-2--2--2-2-2-|
|--0--0-0-0--0--0-0-0-0-0-0-0--0--0-0-0-|
|---------------------------------------|


 3rd Chorus (3:40)
  Asus2                              Em
  Gtr II
   E S S S S S S  S  S S S  E  S S    E  S S S  S S S S  S S S  E    S S
   | | | | | | |  |  | | |  |  | |    |  | | |  | | | |  | | |  |    | |
   / / / / / / /  /  / / /  /  / /    /  / / /  / / / /  / / /  /    / /

  Gtr I
   Q     Q       +E.     S +E  E      E.   S E.     S E.     S +S  E   S
|----------------------------------|-------------------------------------|
|----------------------------------|-------------------------------------|
|------------------------2-(2)-2---|-----------------------------------0-|
|--2-----2-------(2)-----x-(x)-2---|--2------2--------2------------2---0-|
|--0-----0-------(0)-----0-(0)-0---|--2------2--------2------------2-----|
|----------------------------------|--0----0-0------0-0------0-(0)-0-----|
|
| Gtrs III, V
|  W                                  W
|-^0-------------------------------|-^0----------------------------------|
|-^0-------------------------------|-^0----------------------------------|
|-^2-------------------------------|-^0----------------------------------|
|-^2-------------------------------|-^2----------------------------------|
|-^0-------------------------------|-^2----------------------------------|
|----------------------------------|-^0----------------------------------|


  Dsus2        D     Dsus2 D     Em/D
    E  S S E S S  S  S S S  E    S S
    |  | | | | |  |  | | |  |    | |
    /  / / / / /  /  / / /  /    / /

    Q      Q     +E.     S +S  S S S
|------------------------------------|
|---3------3-----(3)-----3-(3)-3-0-0-|
|---2------2-----(2)-----2-(2)-2-0-0-|
|---0------0-----(0)-----0-(0)-0-0-0-|
|------------------------------------|
|------------------------------------|
|
|   W
|-^-0--------------------------------|
|-^-3--------------------------------|
|-^-2--------------------------------|
|-^-0--------------------------------|
|-^(0)-------------------------------|
|------------------------------------|
|
| Gtr IV
|   W
|------------------------------------|
|------------------------------------|
|------------------------------------|
|------------------------------------|
|------------------------------------|
|------------------------------------|


  Asus2                                             Em
   E     S S   S  S   S   S     S S S S  E    S S    E S S S  S S S S S S S  S  S E
   |     | |   |  |   |   |     | | | |  |    | |    | | | |  | | | | | | |  |  | |
   /     / /   /  /   /   /     / / / /  /    / /    / / / /  / / / / / / /  /  / /

   E.      S   S  S   S   S     Q       +S  E   S    Q     E.     S Q       +E    E
|-------------------------------------------------|---------------------------------|
|-----------------3-------------------------------|---------------------------------|
|--2----------------------2-----------------2-----|---------------------------------|
|--2-------2h==4------2---------2-------(2)-2-----|--2-----2------2-2-------(2)-----|
|--0----------------------------0-------(0)-------|--2-----2------2-2-------(2)---0-|
|-----------------------------------------------0-|--0-----0------0-0-------(0)-----|
|
|  W                                                 W
|-^0----------------------------------------------|-^0------------------------------|
|-^0----------------------------------------------|-^0------------------------------|
|-^2----------------------------------------------|-^0------------------------------|
|-^2----------------------------------------------|-^2------------------------------|
|-^0----------------------------------------------|-^2------------------------------|
|-------------------------------------------------|-^0------------------------------|
|
|                               ~~
|  Q          +E     +S   T  T  H                    W
|-------------------------------------------------|---------------------------------|
|-12b14======(12)r==(12)-10h12p10-----------------|---------------------------------|
|-------------------------------------------------|---------------------------------|
|-------------------------------------------------|---------------------------------|
|-------------------------------------------------|---------------------------------|
|-------------------------------------------------|---------------------------------|


  Bm                                  G5
   E   S S S S  S S S S S S S S S S   E S S  E     S  S  S  S S S S S S S
   |   | | | |  | | | | | | | | | |   | | |  |     |  |  |  | | | | | | |
   /   / / / /  / / / / / / / / / /   / / /  /     /  /  /  / / / / / / /

   S S S S S S  S S S S S S E   S S   Q     +S  S +E    +Q.           S T T
|----2-----2------2-----2-----------|-3-----(3)-3-(3)---(3)-----------3-2-2-|
|------3-----3------3-----3---------|-3-----(3)-3-(3)---(3)-----------3-3-3-|
|--------4------4-----4-----4-------|-0-----(0)-0-(0)---(0)-----------0-2-2-|
|-----------------------------------|-0-----(0)-0-(0)---(0)-----------0-0-0-|
|--2--------------------------------|-x-----(x)-x-(x)---(x)-----------x-----|
|-------------------------------0-2-|-3-----(3)-3-(3)---(3)-----------3-----|
|
|  W                                  W
|-^2--------------------------------|---------------------------------------|
|-^3--------------------------------|---------------------------------------|
|-^4--------------------------------|---------------------------------------|
|-^4--------------------------------|---------------------------------------|
|-^2--------------------------------|---------------------------------------|
|-^2--------------------------------|---------------------------------------|
|
| Gtr VI                              Gtr IV
|  S S S S S S  S S S S S S E   E     Q      H.
|--7-----9-----10-----9-----7-------|---------------------------------------|
|----7-----7------7-----7-----------|---------------------------------------|
|------7-----7------7---------------|---------------------------------------|
|-------------------------7---------|-------/5------------------------------|
|-----------------------------------|---------------------------------------|
|-----------------------------------|---------------------------------------|


  D
  E S S  S  S S S  S  S  E   S S E
  | | |  |  | | |  |  |  |   | | |
  / / /  /  / / /  /  /  /   / / /

  Q      E.     S  Q.            S   S
|-2------2------2--2---------------------||
|-3------3------3--3---------------------||
|-2------2------2--2---------------------||
|-0------0------0--0---------------------||
|--------------------------------0---0---||
|--------------------------------0---0---||
|
| Gtr V
| H                Q         E   S   S
|------------------------------------5---||
|----------------------------------------||
|----------------------------x---7b9-----||
|----------------------------------------||
|----------------------------------------||
|----------------------------------------||
|
| Q      Q        +E    +Q.
|----------------------------------------||
|----------------------------------------||
|----------------------------------------||
|----------------------------------------||
|-------/5--------(5)---(5)\-------------||
|----------------------------------------||


 Outro Guitar Solo (4:37)
  F                                  G6
  Gtr II
  E         S S  E    S          S   E         S S E     S  S
  |         | |  |    |          |   |         | | |     |  |
  /         / /  /    /          /   /         / / /     /  /

  Gtr I
                      PM---------|                       PM-|
  Q.                  S          S a Q.                  S  S
|---------------------------------------------------------------|
|---------------------------------------------------------------|
|---------------------------------------------------------------|
|-3--------------------------------3S5--------------------------|
|-3--------------------------------3S5--------------------------|
|-1-------------------0----------1-1S3-------------------0--3---|
|
| Gtr III
| H                                  H
|---------------------------------------------------------------|
|---------------------------------------------------------------|
|-2----------------------------------4--------------------------|
|-3----------------------------------5--------------------------|
|-3----------------------------------5--------------------------|
|-1----------------------------------3--------------------------|
|
| Gtr V
| ~~~~~~~~~~~~~~~~~~~
| S     +E.     +E   +T      +T  S   S    +E     S E    +S  S
|---------------------------------------------------------------|
|-8b10==(8)-----(8)r-(8)pb10r(8)p5---------------8--------------|
|------------------------------------7b9==(7)r-----7pb9r(7)-5b6-|
|---------------------------------------------------------------|
|---------------------------------------------------------------|
|---------------------------------------------------------------|


  Aadd2
  E S S  E  S  S   +S  S  S  S  S   S     S    S
  | | |  |  |  |    |  |  |  |  |   |     |    |
  / / /  /  /  /    /  /  /  /  /   /     /    /

  H                 S  E     S  E         E
|--------------------------------------------------|
|--------------------------------------------------|
|--------------------------------------------------|
|-7-----------------7--7-----7--7---------7\-------|
|-7-----------------7--7-----7--7---------7\-------|
|-5-----------------5--5-----5--5---------5\-------|
|
| Gtr IV
| H                 S  S  S  S  E.            +S
|--------------------------------------------------|
|------------------15S14S15S14---------------------|
|------------------------------14------------(14)\-|
|--------------------------------------------------|
|--------------------------------------------------|
|--------------------------------------------------|
|
| ~~~~~~~~~~~~~~~~~
| Q     +E.   +S    Q           S   E.
|----------------------------------20b22===========|
|--------------------------------------------------|
|--------------------------------------------------|
|-7-----(7)---(7)\---------------------------------|
|--------------------------------------------------|
|--------------------------------------------------|


  F                                   G6
    E    S  S  E           S  S         E    S           S  E        S     S
    |    |  |  |           |  |         |    |           |  |        |     |
    /    /  /  /           /  /         /    /           /  /        /     /

                           PM|                                       PM---|
    Q.                     S  S     a   Q.                           S     S
|----------------------------------------------------------------------------|
|----------------------------------------------------------------------------|
|----------------------------------------------------------------------------|
|---3-------------------------------3S==5------------------------------------|
|---3-------------------------------3S==5------------------------------------|
|---1----------------------0--1-----1S==3----------------------------0-----3-|
|
|   H                                   H
|----------------------------------------------------------------------------|
|----------------------------------------------------------------------------|
|---2-----------------------------------4------------------------------------|
|---3-----------------------------------5------------------------------------|
|---3-----------------------------------5------------------------------------|
|---1-----------------------------------3------------------------------------|
|
|                             ~~~~~~~~~~~~~~
|  +E   +E     T  T  T  T  S  S        +E    T      +T   S  S     S  S     S
|-(20)r(20)---17h20p17-------------------------------------------------------|
|----------------------17-20-20b22====(20)r-20pb22r(20)p17-------17-------17-|
|----------------------------------------------------------19b21----19b21----|
|----------------------------------------------------------------------------|
|----------------------------------------------------------------------------|
|----------------------------------------------------------------------------|


  Aadd2
   E           S S  E          S   S    +S   S     S      S      S     S       S   S
   |           | |  |          |   |     |   |     |      |      |     |       |   |
   /           / /  /          /   /     /   /     /      /      /     /       /   /

   H                                     S   E            S      E             E
|-------------------------------------------------------------------------------------|
|-------------------------------------------------------------------------------------|
|-------------------------------------------------------------------------------------|
|--7-------------------------------------7---7------------7------7-------------7\-----|
|--7-------------------------------------7---7------------7------7-------------7\-----|
|--5-------------------------------------5---5------------5------5-------------5\-----|
|
| Gtr IV
|  H                                     S   T  T  T  T   T   T  T  T  T  T    S   S
|---------------------------------------------------------------------------------17--|
|-------------------------------------------------------------------------------------|
|------------------------------------------------------------17-19p17-19------18------|
|----------------------------------------------17-19p17--19--------------19/----------|
|---------------------------------------17--19----------------------------------------|
|-------------------------------------------------------------------------------------|
|
|          ~~~~~~~~~~~                   ~~~~~~~~~~~~~~~~~~~~~
|  S      +E.       S  S      +S   S     E.              +S      E             S   S
|---------------------------------------------------------------------------------17--|
|------------------20-----------------------------------------------------------------|
|-19b21==(19)r--------19pb21r(19)-17b18--------------------------------------/19------|
|---------------------------------------19--------------(19)s====x--------------------|
|-------------------------------------------------------------------------------------|
|-------------------------------------------------------------------------------------|


  F                             G6
   E       S  S  E       S  S    E       S  S  E      S  S
   |       |  |  |       |  |    |       |  |  |      |  |
   /       /  /  /       /  /    /       /  /  /      /  /

                         PM|                          PM|
   Q.                    S  S a  Q.                   S  S
|----------------------------------------------------------|
|----------------------------------------------------------|
|----------------------------------------------------------|
|--3--------------------------3S=5-------------------------|
|--3--------------------------3S=5-------------------------|
|--1---------------------0--1-1S=3--------------------0--3-|
|
|  E       S  S  E       S  S    E       S  S  E      S  S
|------------17------------17--------------17--------17----|
|-20b22\--------20b22\----------20b22\--------20b22\----20-|
|--------/19-----------/19-------------/19-----------------|
|----------------------------------------------------------|
|----------------------------------------------------------|
|----------------------------------------------------------|
|
|  E       S  S  E       S  S    E       S  S  E      S  S
|------------17------------17--------------17--------17----|
|-20b22\--------20b22\----------20b22\--------20b22\----20-|
|--------/19-----------/19-------------/19-----------------|
|----------------------------------------------------------|
|----------------------------------------------------------|
|----------------------------------------------------------|


  Aadd2
   E        S S   E    S           S +S    S  S    S  S    S  S    S
   |        | |   |    |           |  |    |  |    |  |    |  |    |
   /        / /   /    /           /  /    /  /    /  /    /  /    /

   H                                  S    E       S  E       E
|--------------------------------------------------------------------|
|--------------------------------------------------------------------|
|--------------------------------------------------------------------|
|--7----------------------------------7----7-------7--7-------7\-----|
|--7----------------------------------7----7-------7--7-------7\-----|
|--5----------------------------------5----5-------5--5-------5\-----|
|
|     ~~~~~~~~~~~~~~~~
|  S  E.         +E    T      +T   S  E       E       E       E
|-17---------------------------------20b22---20b22---20b22---20b22---|
|----20b22======(20)r-20pb22r(20)p17---------------------------------|
|--------------------------------------------------------------------|
|--------------------------------------------------------------------|
|--------------------------------------------------------------------|
|--------------------------------------------------------------------|
|
|     ~~~~~~~~~~~~~~~~
|  S  E.         +E    T      +T   S  E       E       E       E
|-17---------------------------------20b22---20b22---20b22---20b22---|
|----20b22======(20)r-20pb22r(20)p17---------------------------------|
|--------------------------------------------------------------------|
|--------------------------------------------------------------------|
|--------------------------------------------------------------------|
|--------------------------------------------------------------------|


  F                                        G6
   E          S  S      E      S      S     E          S   S  E          S  S
   |          |  |      |      |      |     |          |   |  |          |  |
   /          /  /      /      /      /     /          /   /  /          /  /

                               PM---|                                    PM|
   Q.                          S      S  a  Q.                           S  S
|---------------------------------------------------------------------------------|
|---------------------------------------------------------------------------------|
|---------------------------------------------------------------------------------|
|--3-------------------------------------3S=5-------------------------------------|
|--3-------------------------------------3S=5-------------------------------------|
|--1---------------------------0------1--1S=3----------------------------0--3-----|
|
|  S     +S   S  S     +S   S  S     +S     S   S     +S   S  S     +S   S  S
|-20b22r(20)-17---------------20b22r(20)---17----------------20b22r(20)-17--------|
|---------------20b22r(20)-17------------------20b22r(20)-17---------------20b22r=|
|---------------------------------------------------------------------------------|
|---------------------------------------------------------------------------------|
|---------------------------------------------------------------------------------|
|---------------------------------------------------------------------------------|
|
|  S     +S   S  S     +S   S  S     +S     S   S     +S   S  S     +S   S  S
|---------------------------------------------------------------------------------|
|-20b22r(20)-17---------------20b22r(20)---17----------------20b22r(20)-17--------|
|---------------19b21r(19)-17------------------19b21r(19)-17---------------19b21==|
|---------------------------------------------------------------------------------|
|---------------------------------------------------------------------------------|
|---------------------------------------------------------------------------------|


  Aadd2
    E              S      S     E            S         S    +S        S         S        S     S          S     S           S
    |              |      |     |            |         |     |        |         |        |     |          |     |           |
    /              /      /     /            /         /     /        /         /        /     /          /     /           /

    H                                                        S        E                  S     E                E
|------------------------------------------------------------------------------------------------------------------------------------|
|------------------------------------------------------------------------------------------------------------------------------------|
|------------------------------------------------------------------------------------------------------------------------------------|
|---7--------------------------------------------------------7--------7------------------7-----7----------------7\-------------------|
|---7--------------------------------------------------------7--------7------------------7-----7----------------7\-------------------|
|---5--------------------------------------------------------5--------5------------------5-----5----------------5\-------------------|
|
|  +T    T  S     +T   T  T  T  S      T  T  T      T  T  T  T     T  T     T   T     T  T  T  T       T  T  T  T     +T    T    T
|------------------------------------------------------------------------------------------------------------------------------------|
|-(20)p=17------------20p17----17------------------17-20p17-------17-20p===17--------17-20p17---------17-20p17-----------------------|
|----------19b21-(19)-------18--------19-17-19b21-----------19b21--------------19b21----------19b21------------19b21r(19)p=17--------|
|-------------------------------------------------------------------------------------------------------------------------------19---|
|------------------------------------------------------------------------------------------------------------------------------------|
|------------------------------------------------------------------------------------------------------------------------------------|
|
|   ~~~~~                                    ~~~~~~                                                       ~~~~~~~~~~~~~~~~~~~~~~
|  +Q                           E            E               S        S        +S        S     S          E                +S
|------------------------------------------------------------------------------------------------------------------------------------|
|-----------------------------------------------------------20-----------------------------------------------------------------------|
|-(19)r------------------------19pb21-------19pb21-------------------19b21r===(19)------17----16b16.5--------------------------------|
|--------------------------------------------------------------------------------------------------------19---------------(19)\------|
|------------------------------------------------------------------------------------------------------------------------------------|
|------------------------------------------------------------------------------------------------------------------------------------|


  F                    G6
   E  S S  E     S S    S     S     S S  E              S  S
   |  | |  |     | |    |     |     | |  |              |  |
   /  / /  /     / /    /     /     / /  /              /  /

                 PM|                                    PM|
   Q.            S S a  Q.                              S  S
|------------------------------------------------------------|
|------------------------------------------------------------|
|------------------------------------------------------------|
|--3-----------------3S=5------------------------------------|
|--3-----------------3S=5------------------------------------|
|--1-------------0-1-1S=3-------------------------------0--3-|
|
|  ~~~                              ~~
|  Q       e     e      e           E    T      +T   S  S  S
|---------------------------------------------------------20-|
|------------------------------------------------------------|
|---------17----19-----19b21-------19---19b21r=(19)p17-------|
|-19---------------------------------------------------19----|
|------------------------------------------------------------|
|------------------------------------------------------------|
|
|                ~~
|  Q       s  s  E      S     S     E    T      +T   S  S  S
|------------------------------------------------------------|
|------------------------------------------------------------|
|---------19-17--------19----17b18------19pb21r(19)p17-------|
|-19------------19-----------------19------------------19-17-|
|------------------------------------------------------------|
|------------------------------------------------------------|


  Aadd2
   E     S    S  S  S  S      S  S      S       S    S    S     S     E
   |     |    |  |  |  |      |  |      |       |    |    |     |     |
   /     /    /  /  /  /      /  /      /       /    /    /     /     /

   H                             S      E            S    E           E
|------------------------------------------------------------------------------|
|------------------------------------------------------------------------------|
|------------------------------------------------------------------------------|
|--7-----------------------------7------7------------7----7-----------7\-------|
|--7-----------------------------7------7------------7----7-----------7\-------|
|--5-----------------------------5------5------------5----5-----------5\-------|
|
|        ~~~~~~~~~~~~~~~~~~~~
|                                               |--3---|  |---3---|   |--3--|
|  E     Q             E         E         a a  S S    S  S S     S   S   S S
|-----------------------------------------------8-5----------------------------|
|-20b22-20b22---------20pb22----20pb22-------x---------8--5--------------------|
|------------------------------------------x----------------7b9---7---5b6------|
|-------------------------------------------------------------------------7-5--|
|------------------------------------------------------------------------------|
|------------------------------------------------------------------------------|
|
|  ~~~~~                                                  ~~
|  Q             E.           S  s      s  a    S    S    E          +E
|------------------------------------------------------------------------------|
|------------------------------------------------------------------------------|
|------------------------------------------------------------------------------|
|-19------------19-----------17-19-----17--------------------------------------|
|-----------------------------------------19s==17---15-------------------------|
|--------------------------------------------------------17---------(17)\------|


  F                G5                 Asus2
  H                 H                  W
  |                 |                  |
  /                 /                  /

                                       >
         |--3--|            |--3--|
  Q      E  E  E    Q       E  E  E    W
|-----------------------------------|----------*|
|-----------------------------------|----------*|
|-----------------------------------|----------*|
|-3------3--3--3----5-------5--5--5-|--7-------*|
|-3------3--3--3----5-------5--5--5-|--7-------*|
|-1------1--0--1----3-------3--0--3-|--5-------*|
|
|                                      >
| ~                                    ~~~~~
|        |--3--|            |--3--|
| Q      e  e  e    Q       E  E  E    W
|--------------------------------17-|----------*|
|-----------------------------17----|-20b22----*|
|--------5--7--7b9--7-----/17-------|----------*|
|-7---------------------------------|----------*|
|-----------------------------------|----------*|
|-----------------------------------|----------*|
|
|                                      >
|        |--3--|            |--3--|
| Q   a  E  E  E    Q   a   E  E  E    W
|-----------------------------------|----------*|
|-----------------------------------|-14-------*|
|-----------------------------------|-14-------*|
|----------10-12--------------12-14-|-14-------*|
|-8--10s12---------10--12s=14-------|-12-------*|
|-----------------------------------|----------*|


Duration Legend
---------------
W - whole; H - half; Q - quarter; E - 8th; S - 16th; T - 32nd; X - 64th; a - acciaccatura
+ - note tied to previous; . - note dotted; .. - note double dotted
Uncapitalized letters represent notes that are staccato (1/2 duration)
Irregular groupings are notated above the duration line
Duration letters will always appear directly above the note/fret number it represents the
duration for.  Duration letters with no fret number below them represent rests.  Multi-
bar rests are notated in the form Wxn, where n is the number of bars to rest for.  Low
melody durations appear below the staff

Tablature Legend
----------------
 h   - hammer-on
 p   - pull-off
 b   - bend
 pb  - pre-bend
 r   - bend release (if no number after the r, then release immediately)
 /\  - slide into or out of (from/to "nowhere")
 s   - legato slide
 S   - shift slide
  - natural harmonic
[n]  - artificial harmonic
n(n) - tapped harmonic
 ~   - vibrato
 tr  - trill
 T   - tap
 TP  - trem. picking
 PM  - palm muting
\n/  - tremolo bar dip; n = amount to dip
 \n  - tremolo bar down
 n/  - tremolo bar up
/n\  - tremolo bar inverted dip
 =   - hold bend; also acts as connecting device for hammers/pulls
 <>  - volume swell (louder/softer)
 x   - on rhythm slash represents muted slash
 o   - on rhythm slash represents single note slash

Misc Legend
-----------
 |  - bar
||  - double bar
||o - repeat start
o|| - repeat end
*|  - double bar (ending)
 :  - bar (freetime)
 $  - Segno
 &  - Coda
Tempo markers -  = BPM(8/16=s8/s16), where s8 = swing 8ths, s16 = swing 16ths

            
            
Suggest correction
Creating personal tab
Creating personal tab
You can edit any tab online and save it as your Personal.

You can edit, replace or remove any tab part or add personal notes – all changes will be seen only by you.

Personal tabs can be accessed anytime from any device, even offline.
Learn more »
comments
print report bad tab
3 comments total.
0 reply
classic_rock_90 20 Oct 05, 2006 06:59 AM

perfect, i couldn't find one flaw.

0 reply
mohawkkidJohn 102 Jun 14, 2007 01:51 PM

very in-depth guitar tab.

0 reply
guitarjordan2 10 Nov 17, 2007 01:14 PM

ive been to a couple of lynyrd skynyrd concerts where they did this song and theres on three guitars a gibson explorer,
gibson les paul with a slide, a fender strat

guest
You may want to rate the tab now too:
select rating
Wanna post a correction for this tab? Suggest correction