Oops, an error
Loading. Please wait.

Saturday Night Special Bass Tab

version 3
version 3

Whole song

Interactive

5,067 views 3 this week
no commentswrite comment
1 2 3 4 5
please rate
add to favorites
launch autoscroll
font size
0
reset
guitar tuner
Autoscroll
slow
fast
+/-
esc
set tempo
stop
Help us to improve Ultimate-Guitar.com Take our survey!
×
Author
Difficulty
intermediate
-------------------------------------------------------------------------------
			     Saturday Night Special - Lynyrd Skynyrd
-------------------------------------------------------------------------------

Tabbed By : Ryan Fosburgh
e-mail: Ryan464@msn.com 

Tuning: Standard


Intro:
G|--------|--------|--------|2/4-4-4-4\|
D|--------|--------|--------|----------|
A|2-2-2-2-|2-2-2-2-|2-2-2-2-|----------|
E|--------|--------|--------|----------|

G|--------|--------|4p2------|---------|
D|--------|--------|---40---0|---------|
A|2-2-2-2-|2-2-2-2-|------0--|---------|
E|--------|--------|---------|0--------|


Opening Guitar Run:
G|--------|--------|--------|--------|
D|----0---|-0------|----0---|-02-0-2-|
A|02---2--|--2-0-2-|02---2--|---0----|
E|--------|---0----|--------|--------|


Verse 1:
G|--------|--------|--------|--------|
D|----0---|-0------|----0---|-02-0-2-| (repeat this bar once)
A|02---2--|--2-0-2-|02---2--|---0----|
E|--------|---0----|--------|--------|

G|--------|--------|--------|--------|
D|--------|--------|--------|--------|
A|2-2-2-2-|2-2-2-2-|2-2-2-2-|2-2-2-2-|
E|--------|--------|--------|--------|

G|--------|--------|--------|----------|
D|--------|--------|--------|-20-0h2---|
A|2-2-2-2-|2-2-2-2-|2-2-2-2-|---2------|
E|--------|--------|--------|----------|


Chorus 1:

G|----4---|----4---|----4---|--------|
D|--------|--------|--------|--------|
A|22-2-2-2|22-2-2-2|22-2-2-2|0-------|
E|--------|--------|--------|---0--0/|

G|----4---|----4---|----4---|--------|
D|--------|--------|--------|--------|
A|22-2-2-2|22-2-2-2|22-2-2-2|--------|
E|--------|--------|--------|0-------|


Verse 2:
-same as verse 1-


Chorus 2:
-same as chorus 1-


Bridge:
G|--------|--------|--------|--------|
D|--------|--------|--------|--------| (repeat once)
A|2-2-2-2-|2-2-2-2-|2-2-2-2-|2-2-2-2-|
E|--------|--------|--------|--------|

G|--------|--------|--------|--------|
D|--------|--------|--------|--------|
A|2-2-2-2-|2-2-2-2-|2-2-2-2-|--------|
E|--------|--------|--------|0-----0/|

G|--------|--------|--------|--------|
D|--------|--------|--------|--------| (repeat once)
A|2-2-2-2-|2-2-2-2-|2-2-2-2-|2-2-2-2-|
E|--------|--------|--------|--------|

G|--------|--------|--------|------|
D|--------|--------|--------|------|
A|2-2-2-2-|2-2-2-2-|--------|------|
E|--------|--------|7-7-7-7-|7\----|


Guitar Solo:
G|--------|--------|--------|--------|
D|----0---|-0------|----0---|-02-0-2-| (repeat 5 times)
A|02---2--|--2-0-2-|02---2--|---0----|
E|--------|---2----|--------|--------|


Verse 3:
-same as verse 1-


Chorus 3:
-same as chorus 1-


Ending:
G|--------|--------|--------|--------|
D|--------|--------|--------|--------|
A|2-2-2-2-|2-2-2-2-|2-2-2-2-|2-2-2-2-|
E|--------|--------|--------|--------|

G|--------|--------|/44444-----------|/44444----------|
D|--------|--------|-----------------|----------------| 
A|2-2-2-2-|2-2-2-2-|---------22222---|---------22222--|
E|--------|--------|-----------------|----------------|

G|/44444-----------|/44444-----------|
D|-----------------|-----------------| >>> fade out to this pattern
A|---------22222---|---------22222---|
E|-----------------|-----------------|



| /  slide up
| \  slide down
| h  hammer-on
| p  pull-off
| ~  vibrato
| +  harmonic
| x  Mute note
===============================================================================
Suggest correction
Give kudos to tab author, rate the tab!
1 2 3 4 5
comments
print report bad tab
guest
You may want to rate the tab now too:
select rating
Wanna post a correction for this tab? Suggest correction