Oops, an error
Loading. Please wait.

Simple Man Tab

version 1
version 1

Whole song

Interactive

Video

1,641,697 views 3,159 this week
77 commentsread comments
1 2 3 4 5
excellent!
x 320
add to favorites
launch autoscroll
font size
0
reset
how to read this tab
guitar tuner
Tab Pro tools
  • play this tab
  • loop segment
  • change instrument
  • show fretboard
  • metronome
×
Best way to learn
"Simple Man"
Autoscroll
slow
fast
+/-
esc
set tempo
stop
Contributor
Tuning
D# G# C# F# A# D#
[Intro]

(clean) 
eb|-------------------------------------------------------------3------|
Bb|-------------1-------------------------------1---------1-------1----|
Gb|-------0-------0---0---------0---------2-------2---2-----2----------|x2
Db|---------2-------2-----0-------0---0-----2-------2---------2--------|
Ab|-0-2-3-----3-------------2-------2---0-----0---------0-----------0-2|
Eb|---------------------3-----3----------------------------------------|

Then this along with the intro: (clean) 
eb|-----------------------------------------------------------3--------|
Bb|-----------1-------------------------------1-------1-----------1----|
Gb|-------0-------0---0-------0-----------2-------2-------2------------|x2
Db|---------2-------2-----0-------0---0-----2-------2-------2----------|
Ab|-0-2-3-------------------2-------2---0---------------------------0-2|
Eb|---------------------3----------------------------------------------|

Then both of those riffs plus this: (light distortion)
eb|--------------------------------------------------------------------|
Bb|--------------------------------------------------------------------|
Gb|--------------------------------------------------------------------|
Db|------------------2-------------------------------------------------|
Ab|-0-2-3------3--------------------2-0------0-----0--0------0------0-2|
Eb|--------------------3-------3---------------------------------------|


[Verse] x4

eb|-------------------------------------------------------------3------|
Bb|-------------1-------------------------------1---------1-------1----|
Gb|-------0-------0---0---------0---------2-------2---2-----2----------|
Db|---------2-------2-----0-------0---0-----2-------2---------2--------|
Ab|-0-2-3-----3-------------2-------2---0-----0---------0-----------0-2|
Eb|---------------------3-----3----------------------------------------|

eb|-----------------------------------------------------------3--------|
Bb|-----------1-------------------------------1-------1-----------1----|
Gb|-------0-------0---0-------0-----------2-------2-------2------------|
Db|---------2-------2-----0-------0---0-----2-------2-------2----------|
Ab|-0-2-3-------------------2-------2---0---------------------------0-2|
Eb|---------------------3----------------------------------------------|


[Interlude] 

(Heavy distortion) 
eb|--------------------------------------------------------------------|
Bb|--------------------------------------------------------------------|
Gb|--------------------------------------------------------------------|x2
Db|--------------------------------------------------------------------|
Ab|-0-2--3------5b7r5-3---------5b7r5-3-(0)----------------------------|
Eb|----------------------3---------------5-----0--3--0--3//5-------0---|


[Verse 2]

eb|-------------------------------------------------------------3------|
Bb|-------------1-------------------------------1---------1-------1----|
Gb|-------0-------0---0---------0---------2-------2---2-----2----------|
Db|---------2-------2-----0-------0---0-----2-------2---------2--------|
Ab|-0-2-3-----3-------------2-------2---0-----0---------0-----------0-2|
Eb|---------------------3-----3----------------------------------------|

eb|-----------------------------------------------------------3--------|
Bb|-----------1-------------------------------1-------1-----------1----|
Gb|-------0-------0---0-------0-----------2-------2-------2------------|
Db|---------2-------2-----0-------0---0-----2-------2-------2----------|
Ab|-0-2-3-------------------2-------2---0---------------------------0-2|
Eb|---------------------3----------------------------------------------|


[Chorus]

(Hea~y Distortion) 
eb|--------------------------------------------------------------------|
Bb|--------------------------------------------------------------------|
Gb|--------------------------------------------------------------------|x4
Db|--10-----------10\5--5-----------5---7-----------------7--------x---|
Ab|--10-----------10\5--5-----------5---7-----------------7--------x---|
Eb|--8------------8\\3--3-----------3---5----------0-3-0--5--------x---|


[Solo]

Over the chords Ab, Cb,and Gb
eb|--------------------------------------------------------------------|
Bb|--------------------------------------------------------------------|
Gb|------5-7--7b~~~~~~~~~~~~--7b7-5--7-----------------7b7-5-----------|
Db|--------------------------------------------------------------7-----|
Ab|--------------------------------------------------------------------|
Eb|--------------------------------------------------------------------|

eb|--------------8-----------------------------------------------------|
Bb|----8-10-10------10----------20---------20--------------------------|
Gb|-/9--------------------17-19-19b~~~~~~~---19b19--17--19----19b19-17-|
Db|--------------------/19---------------------------------------------|
Ab|--------------------------------------------------------------------|
Eb|--------------------------------------------------------------------|

eb|----------------17--19b-20b-20b-21--20b----17--------------------------------------------17--|
Bb|---20b22~~~~~-17-----------------------------17--20b22~~~~~~~--20b20-17-20-------------------|
Gb|------------------------------------------------------------------------------------19b21----|
Db|-19------------------------------------------------------------------------------------------|
Ab|---------------------------------------------------------------------------------------------|
Eb|---------------------------------------------------------------------------------------------|

eb|---------------17--------------17---------17----------------|
Bb|-20b-------------20b-------------20b----17--17-20b----------|
Gb|---------19b21~~--------19b21~~-------------------------5-7-|
Db|------------------------------------------------------7-----|
Ab|------------------------------------------------------------|
Eb|------------------------------------------------------------|

eb|--------------------------------------5------------------------------------------------|
Bb|--------------10-----------------------5--8b10~~~~-------------------------------------|
Gb|-7b9~~~~~~--------7b7---5-7b7~~~~-7b---------------------------------------------17-19-|
Db|------------------------------------------------------------------------17-17h19-------|
Ab|--------------------------------------------------------15-17--17/19-19----------------|
Eb|----------------------------------------------------/17--------------------------------|

eb|-----------------------------------------------------------------------------------|
Bb|----------------20---------------20-------------20b22~~~~~~~--8--------------------|
Gb|-19b21~~~~---------19b19------------19b19-17--------------------7b7--5-------------|
Db|-------------/19--------------------------------------------------------7----------|
Ab|-------------------------------------------------------------------------------0-2-|
Eb|-----------------------------------------------------------------------------------|


*************************
| \ - slide down
| / - slide UP
| h - hammer on
| b - bend
| r - relase
| ~ - Vibrato
| (n) Ghost note
*************************
comments
print report bad tab
77 comments total. Showing first comments. show 3 bad comments
I want to post or [tab]
guest
You may want to rate the tab now too:
select rating
Please do not post tabs as comments. Select "correction" instead!