Oops, an error
Loading. Please wait.
We have an official Simple Man tab made by UG professional guitarists. Check out the tab »
×
99,061 views 180 this week
10 commentsread comments
1 2 3 4 5
x 23
add to favorites
×
Save as Personal and add changes to this tab that will be seen only by you. Learn more ›
×
You can save this tab as Personal to edit and correct it or add notes. All changes will be seen only by you. Learn more »
launch autoscroll
font size
0
reset
how to read this tab
guitar tuner
backing track
0:00
0:00
edit
Autoscroll
slow
fast
+/-
esc
set tempo
stop
Author
Difficulty
intermediate
-------------------------------------------------------------------------------
                          Simple Man - Lynyrd Skynyrd
-------------------------------------------------------------------------------
Tabbed by: guitar_guy12
Email: lundie12@hotmail.com

Tuning: 1/2 Step Down (Eb Ab Db Gb Bb eb)

[First Riff] (Clean) Play 8 Times
            C           G                 A 
eb|-------------------------------------------------------------3---------|
Bb|-------------1-------------------------------1---------1-------1-------|
Gb|-------0-------0---0---------0---------2-------2---2-----2-------------|
Db|---------2-------2-----0-------0---0-----2-------2---------2-----------|
Ab|-0-2-3-----3-------------2-------2---0-----0---------0-----------------|
Eb|---------------------3-----3-------------------------------------------|

Second Riff: (Heavy Distortion) Play 2 Times
eb|-----------------------------------------------------------------------|
Bb|-----------------------------------------------------------------------|
Gb|-----------------------------------------------------------------------|
Db|-----------------------------------------------------------------------|
Ab|-0-2-3----5^-3------5^-3-----------------------------------------------|
Eb|---------------3---------5----0-3-0-3/5--------------------------------|

----Play First Riff 4 Times Then...

[Third Riff] (Heavy Distortion) Play 4 Times
eb|-----------------------------------------------------------------------|
Bb|-----------------------------------------------------------------------|
Gb|-----------------------------------------------------------------------|
Db|-10-----10\5-5-----5-----7-----------7-----x---------------------------|
Ab|-10-----10\5-5-----5-----7-----------7-----x---------------------------|
Eb|-8------8-\3-3-----3-----5-----0-3-0-5-----x---------------------------|

----Play First Riff 5 Times, Then Third Riff 4 Times Untill The Solo

[Solo]
eb|-----------------------------------------------8-----------------------|
Bb|---------------------------------------8h10-10---10--------------------|
Gb|-5-7-7^^^^--7'-5-7----7'-5----------/9---------------------------------|
Db|---------------------------7-------------------------------------------|
Ab|-----------------------------------------------------------------------|
Eb|-----------------------------------------------------------------------|

eb|-----------------------------------------------------------------------|
Bb|------------------20----------------------------21^^22~~---------------|
Gb|-----17-19-19^^~~----19^-17-19------19^^-17----------------------------|
Db|-/19----------------------------------------19-------------------------|
Ab|-----------------------------------------------------------------------|
Eb|-----------------------------------------------------------------------|

eb|----17-20^^20^^20^^21^^20-17-------------------------------------------|
Bb|-17--------------------------17-21^^~~-21'-17-20-----------------------| 
Gb|-----------------------------------------------------------------------| 
Db|-----------------------------------------------------------------------| 
Ab|-----------------------------------------------------------------------|
Eb|-----------------------------------------------------------------------|

eb|-----17----------17----------17--------17------------------------------|
Bb|-/17----21'--/17----21'--/17----21'-17----17-21'-------------10--------|
Gb|----------------------------------------------------5-7-7^------7-5-7^-|
Db|--------------------------------------------------7--------------------|
Ab|-----------------------------------------------------------------------|
Eb|-----------------------------------------------------------------------|

eb|-----------------------------------------------------------------------|
Bb|------10---10~---------------------------------------------------------|
Gb|---/9----9----------------------------------17/19-19^~-----------------|
Db|--------------------10-12-12/14-14/17-17/19----------------------------|
Ab|----------------/12----------------------------------------------------|
Eb|-----------------------------------------------------------------------|

eb|-----------------------------------------------------------------------|
Bb|-----20-------20--------21^^--8----------------------------------------|
Gb|--------19'-----19'-17---------7^-5------------------------------------|
Db|-/19---------------------------------7---------------------------------|
Ab|-----------------------------------------------------------------------|
Eb|-----------------------------------------------------------------------|

----Then Play First Riff 6 Times, Then Third Riff Untill Music Fades

==========================================================================



************************************

| / slide up 
| \ slide down 
| h hammer-on 
| p pull-off 
| ~ vibrato 
| + harmonic 
| x Mute note
| ^ full bend
| ' half bend

************************************

            
            
Suggest correction
Creating personal tab
Creating personal tab
You can edit any tab online and save it as your Personal.

You can edit, replace or remove any tab part or add personal notes – all changes will be seen only by you.

Personal tabs can be accessed anytime from any device, even offline.
Learn more »
comments
print report bad tab
10 comments total. Showing first comments.
0 reply
FenderFreak626 15 Mar 28, 2007 07:13 PM

pretty good

0 reply
Bluestrat23 10 Dec 20, 2007 11:49 AM

Very good!

Small correction: after the solo, you play the 2nd riff twice then play the 1st riff.

0 reply
GuitarFR34k802 10 May 02, 2008 12:16 PM

this tab is beautiful man thanks for the amazing tabbing i really hate it when people get the tabs horribly wrong but this is awsome thanks again man

guest
You may want to rate the tab now too:
select rating
Wanna post a correction for this tab? Suggest correction