Oops, an error
Loading. Please wait.

Sweet Home Alabama Tab

version 1
version 1
941,465 views 942 this week
64 commentsread comments
1 2 3 4 5
accurate
x 202
add to favorites
launch autoscroll
font size
0
reset
how to read this tab
guitar tuner
Autoscroll
slow
fast
+/-
esc
set tempo
stop
Help us to improve Ultimate-Guitar.com Take our survey!
×
Author/Artist: lynyrd skynyrd
Title: Sweet home Alabama
Album: greatest hits
Transcribed by: Flavio J. C.
Email: Freebaseiscool@yahoo.com
AIM SN: Freebase is cool

this is my favorite oldies song ever

e|----------------------------------------------------|---------------------------------------------------|
B|-------3-----------3-----------3--------------------|---------3------------3-----------3----------------|
G|----------2-----------2-----------0-----------------|------------2------------2-----------0----0(x4)----|
D|-0--0--------------------------------------0h2p0----|---0--0---------------------------------0h2(x4)----|
A|-------------3--3--------2-2---------0h2p0--------3-|---------------3--3---------2--2-------------------|
E|----------------------------------------------------|---------------------------------------------------|

you can play 3 chords  to it which are DM, CM and GM


D(Major)      G(Major)
e|---2---|   e|---3---|
B|---3---|   B|---3---|
G|---2---|   G|---0---|
D|---0---|   D|---0---|
A|---0---|   A|---2---|
E|---0---|   E|---3---|

C(Major)
e|---0---|
B|---1---|
G|---0---|
D|---2---|
A|---3---|
E|---0---|


************************************

| h  Hammer-on
| p  Pull-off

************************************
Suggest correction
comments
print report bad tab
64 comments total. Showing first comments. show 1 bad comment
+9 reply
guitarplayer34 10 wrote on March 9 2002, 12:00 am

sorry to say this dude but that intro is off major

+6 reply
bacosta9 0 wrote on March 27 2002, 12:00 am

can anybody get the intro right?

guest
You may want to rate the tab now too:
select rating
Wanna post a correction for this tab? Suggest correction