Oops, an error
Loading. Please wait.

Sweet Home Alabama Tab

version 2
version 2
326,042 views 234 this week
12 commentsread comments
1 2 3 4 5
accurate
x 35
add to favorites
launch autoscroll
font size
0
reset
how to read this tab
guitar tuner
Autoscroll
slow
fast
+/-
esc
set tempo
stop
Help us to improve Ultimate-Guitar.com Take our survey!
×
Author
Sweet Home Alabama
Lynard Skynard

Havent seen the solo yet, so here it is.  It is from a very good source.

Distortion

e|------------------------------------------------------------------------------------------------------|
B|---------------------------------------------------------8---8h10***---8---8--------------------------|
G|-----0-2/4-2-2-2*--2*--2*--(2)**+-(2)*-0---0-0-------/9----9-------------9---9p7--7-7-7-7---7---9-7-7-|
D|-0h2-------------------------------------2----------------------------------------------------9-------|
A|------------------------------------------------------------------------------------------------------|
E|------------------------------------------------------------------------------------------------------|


note: in this following piece, the pull-off notes are 32nd notes.

e|---------------------------------------------------------------------------------------------------------|
B|---------------------------------------------------------------------------------------------------------|
G|------12----12-14p12----12-17p12----12-17p12----12-16p12----12-16p12----12-16p12----12-16p12----12-16p12-|
D|-9/14----14----------14----------14----------14----------14----------14----------14----------14----------|
A|---------------------------------------------------------------------------------------------------------|
E|---------------------------------------------------------------------------------------------------------|

note: in this following piece, the pull-off notes are 32nd notes.

e|----------------------------------------------------------------------------------|
B|----------------------------------------------------------------------------------|
G|----12-16p12----12-14p12----12-14p12----12-17p12----12-17p12----12-17p12----12----|
D|-14----------14----------14----------14----------14----------14----------14----14-|
A|----------------------------------------------------------------------------------|
E|----------------------------------------------------------------------------------|

e|-------------------------------------------12----12h15-15#--15#--15#-15#-15#--15#-15#-15#--15#-15#-15#--|
B|-------------------------------12----12h15----15--------------------------------------------------------|
G|-------12----------12----12h14----14--------------------------------------------------------------------|
D|----------14/12/14----14--------------------------------------------------------------------------------|
A|-13/14--------------------------------------------------------------------------------------------------|
E|--------------------------------------------------------------------------------------------------------|

note: the bends in this piece here are worth one notes themselves.  ususally a
bent note is one single note, but in this part, the note is struck and then bent
for the following note (bend in parentheses).

e|15#-15#-15#--15#-15#-15#-13---|
B|------------------------------|
G|------------------------------|
D|------------------------------|
A|------------------------------|
E|------------------------------|

e|---12----12-----------12-----------12-----------12-----------12-----------12----------|
B|------15----15-(15)**----15-(15)**----15-(15)**----15-(15)**----13-(13)**----15-(15)**|
G|--------------------------------------------------------------------------------------|
D|--------------------------------------------------------------------------------------|
A|--------------------------------------------------------------------------------------|
E|--------------------------------------------------------------------------------------|


e|-12----------------------------------------------------------------------------------------------|
B|----15p12----12----------------------------------------------------------------------------------|
G|----------15----15p14-12-------------------------------------------------------------------------|
D|-------------------------14-12----------------------------------------------------------------12-|
A|-------------------------------14p12-10-10-10-12----10h12-12--10----10-10---10-12----10-12h14----|
E|-------------------------------------------------12--------------12---------------12-------------|

e|--------------------------------------------------------------------15-17**----17**----17**----17-15----|
B|-----------------------------------------12-15p12-15p12-------15h17----------------------------------17-|
G|----------------12----12-14----12-14**------------------14h16-------------------------------------------|
D|-14----12-12-14----14-------14--------------------------------------------------------------------------|
A|----14--------------------------------------------------------------------------------------------------|
E|--------------------------------------------------------------------------------------------------------|

e|-15-----------------------------------------------------------------------------------------------|
B|----17-15--12----12-------------------------------------------------------------------------------|
G|--------------15----15p14-12-------12#-----------14**-14*+*-14-12-----14-10h11--------------------|
D|-----------------------------14-12------------12-------------------------------12-----------------|
A|----------------------------------------------------------------------------------12----12p10-----|
E|--------------------------------------------------------------------------------------------------|

************************************

h - hammer on
p - pull off
* - bend 1/2 step
** - bend 1 full step
**+ - bend one full step and return
*** - bend more than 1 full step
/ - slide up or down
# - vibrato
*+* - ghost bend

************************************
Suggest correction
comments
print report bad tab
12 comments total. Showing first comments.
+1 reply
john belushi 10 wrote on March 13 2004, 12:00 am

I'm assuming this is the second solo......If it's the first...way off :p

+1 reply
bordermax 10 wrote on January 30 2006, 08:42 pm

This is awesome, except for i think that in the 32nd note part, it goes 12 16 12 before 12 17 12

+1 reply
Kjetil 104 wrote on January 17 2007, 03:17 pm

I got a little confused at the start, but now I'm sure that this is right!:D

btw, there ain't any first and second solo. The first you hear is a bridge, or a midleplay, or wtf :P

guest
You may want to rate the tab now too:
select rating
Wanna post a correction for this tab? Suggest correction