Oops, an error
Loading. Please wait.

Sweet Home Alabama Tab

version 3
version 3
247,483 views 156 this week
8 commentsread comments
1 2 3 4 5
x 30
add to favorites
launch autoscroll
font size
0
reset
how to read this tab
guitar tuner
Autoscroll
slow
fast
+/-
esc
set tempo
stop
Help us to improve Ultimate-Guitar.com Take our survey!
×
[Main riff]

e|---------------------------------------------------------------------------|
B|----------3-----------------3----------------------------------------------|
G|------------2-(0)--------------0-(0)-----------0---------------------------|
D|---0-0--------------------------------------------------0h2p0-2p0----------|
A|-----------------3--(3)-3-----------------------------0h2----2-------------|
E|--------------------------------------3-(3)-3------------------------------|

e|---------------------------------------------------------------------------|
B|----------3-----------------3----------------------------------------------|
G|------------2-(0)--------------0-(0)---------0------0h2p0--0h4p0--0h5p0----|
D|---0-0---------------------------------------------------------------------|
A|-----------------3--(3)-3--------------------------------------------------|
E|-------------------------------------3-(3)-3-------------------------------|

e|---------------------------------------------------------------------------|
B|----------3-----------------3----------------------------------------------|
G|------------2-(0)--------------0-(0)-----------0---------------------------|
D|---0-0--------------------------------------------------0h2p0--2p0---------|
A|-----------------3--(3)-3-----------------------------0h2---2--------------|
E|--------------------------------------3-(3)-3------------------------------|

e|---------------------------------------------------------------------------|
B|----------3-----------------3----------------------------------------------|
G|------------2-(0)--------------0-(0)-----------0---------------------------|
D|---0-0--------------------------------------------------0h2--2p0-----------|
A|-----------------3--(3)-3-----------------------------0h2---2--------------|
E|--------------------------------------3-(3)-3------------------------------|


[Verse]

e|---------------------------------------------------------------------------|
B|----------3-----------------3----------------------------------------------|
G|------------2-(0)--------------0-(0)-----------0---------------------------|
D|---0-0--------------------------------------------------0h2p0--2p0---------|
A|-----------------3--(3)-3-----------------------------0h2---2--------------|
E|--------------------------------------3-(3)-3------------------------------|

e|---------------------------------------------------------------------------|
B|----------3-----------------3----------------------------------------------|
G|------------2-(0)--------------0-(0)-----------0---------------------------|
D|---0-0--------------------------------------------------0h2--2p0-----------|
A|-----------------3--(3)-3-----------------------------0h2---2--------------|
E|--------------------------------------3-(3)-3------------------------------|

or

the strumming pattern is (Down DOwn up)
e|---------2-2-2-----------3-3-3--------3---------------------------------------|
B|---------3-3-3-----------0-0-0--------0---------------------------------------|
G|---------2-2-2-----------0-0-0--------0---------------------------------------|
D|---0-0-------------------0-0-0--------0---------------------------------------|
A|------------------3-3----3-3-3--------2---------------------------------------|
E|--------------------------------3-3---3---------------------------------------|


[Bridge]

e|--------------------------------------------------------------------------|
B|--------------------------------------------------------------------------|
G|---------7-----------5--------------0-------------------------------------|
D|---------7-----------5-------------0--------------------------------------|
A|--7h8h9------9h7-5h7-----7\0--0h2-----------------------------------------|
E|--------------------------------------------------------------------------|


[Chorus]

(its the same as the verse but a tab difrent)
e|---------2-2-2-----------3-3-3--------3---------------------------------------|
B|---------3-3-3-----------0-0-0--------0---------------------------------------|
G|---------2-2-2-----------0-0-0--------0---------------------------------------|
D|---0-0-------------------0-0-0--------0---------0h2p0-------------------------|
A|------------------3-3----3-3-3--------2------0h2-------3----------------------|
E|--------------------------------3-3---3---------------------------------------|


e|---------2-2-2-----------3-3-3--------3--3-3-3------------------------------------|
B|---------3-3-3-----------0-0-0--------0--0-0-0------------------------------------|
G|---------2-2-2-----------0-0-0--------0--0-0-0------------------------------------|
D|---0-0-------------------0-0-0--------0--0-0-0------------------------------------|
A|------------------3-3----3-3-3--------2--2-2-2------------------------------------|
E|--------------------------------3-3---3--3-3-3------------------------------------|

e|---------2-2-2-----------3-3-3--------3---------------------------------------|
B|---------3-3-3-----------0-0-0--------0---------------------------------------|
G|---------2-2-2-----------0-0-0--------0---------------------------------------|
D|---0-0-------------------0-0-0--------0---------0h2p0-------------------------|
A|------------------3-3----3-3-3--------2------0h2-------3----------------------|
E|--------------------------------3-3---3---------------------------------------|

e|---------2-2-2-----------3-3-3--------3-----1--0---------------------------------|
B|---------3-3-3-----------0-0-0--------0-----1--1---------------------------------|
G|---------2-2-2-----------0-0-0--------0-----2--0---------------------------------|
D|---0-0-------------------0-0-0--------0-----3--2---------------------------------|
A|------------------3-3----3-3-3--------2--------3---------------------------------|
E|--------------------------------3-3---3------------------------------------------|

e|---17b---15p14-------------10p8--------------------8---10p8------------------|
B|----------------15-15-------------10p8------8-10p8----------10p8---8---------|
G|-----------------------------------------9-----------------------9-----------|
D|-----------------------------------------------------------------------------|
A|-----------------------------------------------------------------------------|
E|-----------------------------------------------------------------------------|

e|---------------------------------------------------------------------------|
B|--10p8-10p8----5-8p5-------------------------------------------------------|
G|---------------------7p5----5-7-5------------------------------------------|
D|--------------------------7------------------------------------------------|
A|---------------------------------------------------------------------------|
E|---------------------------------------------------------------------------|


[Solo 2]

e|--------------------------------------------------------------------|
B|-----------------------------------------8---10b-12-8---------------|
G|-----0h2p0-----2b-2b-2bv-0---0--------/9---9----------9-7---7---9-7-|
D|-0h2-------2p0-------------2----------------------------------9-----|
A|--------------------------------------------------------------------|
e|--------------------------------------------------------------------|

e|---------------------------------------------------------------------|
B|---------------------------------------------------------------------|
G|------12----12-14p12----12-14p12----12-14p12----12-14p12----12-14p12-|
D|-9/14----14----------14----------14----------14----------14----------|
A|---------------------------------------------------------------------|
e|---------------------------------------------------------------------|

e|-------------------------------------------------------------|
B|-------------------------------------------------------------|
G|----12-14p12----12-14p12----12-14p12----12-14p12----12-14p12-|
D|-14----------14----------14----------14----------14----------|
A|-------------------------------------------------------------|
e|-------------------------------------------------------------|

e|-------------------------------------------------------------|
B|-------------------------------------------------------------|
G|----12-14p12----12-14p12----12-14p12----12-14p12----12-------|
D|-14----------14----------14----------14----------14----14----|
A|-------------------------------------------------------------|
e|-------------------------------------------------------------|

e|-------------------------------------------12----15v-15v-15v-15v-|
B|-------------------------------12----12h15----15-----------------|
G|-------12----------12----12h14----14-----------------------------|
D|----------14p12h14----14-----------------------------------------|
A|-13h14-----------------------------------------------------------|
e|-----------------------------------------------------------------|

e|-15v-15v-15v-15v-13b-12-----12-----12-----12-----12-----12-----|
B|------------------------15b----15b----15b----15b----15b----15b-|
G|---------------------------------------------------------------|
D|---------------------------------------------------------------|
A|---------------------------------------------------------------|
e|---------------------------------------------------------------|

e|-12----------------------------------------------------------------|
B|----15p12----12----------------------------------------------------|
G|----------15----15p14-12-------------------------------------------|
D|-------------------------14-12-------------------------------------|
A|-------------------------------14p12-10-10-12----10h12-12----10h12-|
e|----------------------------------------------12----------12-------|

e|--------------------------------------------------------------------|
B|-----------------------------------------------------12-15p12-15p12-|
G|-------------------------------12----12-14----12-14b----------------|
D|-------------12-14----12-12-14----14-------14-----------------------|
A|----10-12h14-------14-----------------------------------------------|
e|-12-----------------------------------------------------------------|

e|-------------15-17b-17b-17b-17-15----15-------------------------|
B|-------15h17----------------------17----17-15-12----12----------|
G|-14h16-------------------------------------------15----15p14-12-|
D|----------------------------------------------------------------|
A|----------------------------------------------------------------|
e|----------------------------------------------------------------|

e|----------|
B|----------|
G|-------12-|
D|-14-12----|
A|----------|
e|----------|


[Bridge]
(with this)

e|-----------------------------------------------|
B|-------------------------------------14b-14-12-|
G|-------7-7-------5-5---------0—---12-----------|
D|-------7-7-------5-5-------0-------------------|
A|-7h8h9-----9\5h7-----7\0h2---------------------|
e|-----------------------------------------------|


e|----------------------------------------|
B|------------------------------------7-5-|
G|-------7-7-------5-5---------0----7-----|
D|-------7-7-------5-5-------0------------|
A|-7h8h9-----9\5h7-----7\0h2--------------|
e|----------------------------------------|



************************************

| (n)  Ghost note
| h    Hammer-on
| p    Pull-off
| b    Bend
| /    Slide up
| \    Slide down 

************************************
Suggest correction
comments
print report bad tab
8 comments total. Showing first comments. show 2 bad comments
+4 reply
Oasis-fanatic 120 Jul 09, 2006 05:11 AM

you tabbed the whole song not the solo

guest
You may want to rate the tab now too:
select rating
Wanna post a correction for this tab? Suggest correction