Oops, an error
Loading. Please wait.

Sweet Home Alabama Tab

version 1
version 1
6,149,341 views 6,135 this week
179 commentsread comments
1 2 3 4 5
accurate
x 718
add to favorites
launch autoscroll
font size
0
reset
how to read this tab
guitar tuner
Autoscroll
slow
fast
+/-
esc
set tempo
stop
Help us to improve Ultimate-Guitar.com Take our survey!
×
[Section A]

(Guitar 1)                                   
     D          Csus2              G  
e|-------------------------------|-------------------------------|
B|--------3---------------3------|-------------------------------|
G|----------2---------------0----|--------0--0----------------2/0|
D|--0--0------0---------------0--|-------------------0-2/0-------|
A|--------------3(0)3------------|--------------0/2--------2-----|
E|-------------------------------|-3(0)3-------------------------|

(Guitar 2)                                                                
e|-------------------------------|-------------------------------|
B|-------------------------------|-------------------------------|
G|-------------------------------|-------------------------------|
D|-------------------------------|-------------------------7-----|
A|-------------------------------|--------------------------9\7/9|
E|-------------------------------|-------------------------------|
                                                         
(Guitar 1)    
e|-------------------------------|-------------------------------|
B|--------3---------------3------|-------------------------------|
G|----------2---------------0----|--------0--0--2/0-0-4/0-----5b-|
D|--0--0------0---------------0--|-------------------------0-----|
A|--------------3(0)3------------|-------------------------------|
E|-------------------------------|-3x3---------------------------|

(Guitar 2)     
e|-------------------------------|-------------------------------|
B|-------------------------------|-------------------------------|
G|-7----------9-7----------------|-7-~~~~~~----------------------|
D|-------------------------------|-------------------------------|
A|-------------------------------|-------------------------------|
E|-------------------------------|-------------------------------|

(Guitar 1}   
   D                              G
e|-------------------------------|-------------------------------|
B|--------3--------------3----3--|-------3----3------------------|
G|--------2--------------0----0--|-------0----0-------------2/0--|
D|--0--0-------x--------------2--|-------0----0-----0-2/0--------|
A|----------------3(0)3----------|--------------0/2-------2------|
E|-------------------------------|3-x-3----3---------------------|

(Guitar 2)    
e|-----0-------------------0-----|----3---------------3----------|
B|----------3---------3-------3--|---------3----3/5--------5\3---|
G|-------------------------------|-------------------------------|
D|-------------------------------|-------------------------------|
A|-------------------------------|-------------------------------|
E|-------------------------------|-------------------------------|

(Guitar 1)     
   D                              G
e|-------------------------------|-------------------------------|
B|--------3--------------3----3--|-------3-----------------------|
G|--------2--------------0----0--|-------0------------0----------|
D|--0--0-------x--------------0--|-------0----------0------------|
A|----------------3(0)3----------|--------------1/2--------------|
E|-------------------------------|3-x-3--------------------------|

(Guitar 2)    
e|-----0-------------------0-----|----3---------3----------3-----|
B|----------3---------3-------3--|---------3----------3----------|
G|-------------------------------|-------------------------------|
D|-------------------------------|-------------------------------|
A|-------------------------------|-------------------------------|
E|-------------------------------|-------------------------------|


[Section B]

(Verses begin here and so does D.S.) 

(Guitar 1) 
    D            Csus2             G        
e|-------------------------------|------------------------------|
B|--------3--3----------3---3----|-------3----------------------|
G|--------2--2----------0---0----|-------0----------0----0------|x4
D|--0--0--------------------0----|-------0--------0-------------|
A|---------------3--3------------|------------0/2-----------0/2-|
E|-------------------------------|-3--3-------------------------|

(Guitar 1)    
   D             Cadd2              G
e|--------------------------------|------------------------------|
B|--------3--3----------3---3-----|-------3----------------------|
G|--------2--2----------0---0-----|-------0-----------0----------|x4
D|--0--0--------------------2-----|-------0-----------0----------|
A|---------------3--3-------------|------------------------------|
E|--------------------------------|-3--3-------3--3--------------|

(Guitar 1)   
  D             Csus2               G
e|--------------------------------|------------------------------|
B|--------3--3----------3---3-----|-------3----------------------|
G|--------2--2----------0---0-----|-------0----------0----0------|x4
D|--0--0--------------------0-----|-------0--------0-------------|
A|---------------3--3-------------|------------0/2-----------0/2-|
E|--------------------------------|-3--3-------------------------|

(Guitar 1)    
   D            Cadd2               G
e|--------------------------------|------------------------------|
B|--------3--3----------3---3-----|-------3---3------------------|
G|--------2--2----------0---0-----|-------0---0-------0---0-0----|x4
D|--0--0--------------------2-----|-------0---0-------0---0-0----|
A|---------------3--3-------------|------------------------------|
E|--------------------------------|-3--3--------3--3-------------|


***********************************
| /   Slide up
| \   Slide down
| ~   Vibrato
| x   Dead note
|(n)  Ghost note
| b   Bend
***********************************   
Suggest correction
What's this?
You can suggest a correction to this tab. Community and Mods will review your correction and vote to approve or reject it.
comments
print report bad tab
179 comments total. Showing first comments.
+27 reply
hendriksfan 63 wrote on September 15 2003, 12:00 am

i like the tab cause it's basically how I play it, but about those slide signs, they're supossed to be hammers and pulls, gee, but other than that, rock on my weed smoking amigo

0 reply
Banx 23 wrote on September 30 2003, 12:00 am

great tab aside from the slide/hammer mix up

+1 reply
sperley 106 wrote on December 23 2003, 12:00 am

nice tab for a nice song

guest
You may want to rate the tab now too:
select rating
Please do not post tabs as comments. Select "correction" instead!