Oops, an error
Loading. Please wait.

Sweet Home Alabama Tab

version 2
version 2
431,410 views 216 this week
94 commentsread comments
1 2 3 4 5
x 134
add to favorites
launch autoscroll
font size
0
reset
how to read this tab
guitar tuner
Autoscroll
slow
fast
+/-
esc
set tempo
stop
Help us to improve Ultimate-Guitar.com Take our survey!
×
[Intro]

Guitar 1
e|-----------------|----------------|-------------------------------------|
B|----------3------|----------3-----|-------------------------------------|
G|-------------2---|------------0---|-----------0--0------------------2p0-|
D|---0--0--------0-|--------------0-|----------------------0--2p0---------|
A|-----------------|-3-(0)-3--------|------------------0h2---------2------|
E|-----------------|----------------|-3-(0)-3-----------------------------|

e|----------------------------------|-----------------------------------|
B|--------3----------------3--------|-----------------------------------|
G|----------2-----------------0-----|----------0--0--2p0--0--4p0----5b7-|
D|---0--0-----0------------------0--|----------------------------0------|
A|---------------3--(0)-3-----------|-----------------------------------|
E|----------------------------------|-3-(0)-3---------------------------|

e|-----------------------3--3-|----------3--3---------------------|
B|--------3--------------3--3-|----------3--3---------------------|
G|--------2--------------0--0-|----------0--0----------------2p0--|
D|--0--0--0-------------------|--------------------0--2p0---------|
A|------------3--(0)--3-------|----------------0h2---------2------|
E|----------------------------|-3-(0)-3---------------------------|

e|-----------------------3---|-----------3------------|
B|--------3--x-----------3---|-----------3------------|
G|--------2--x-----------0---|-----------0---------0--|
D|--0--0--0------------------|-------------------0----|
A|--------------3-(0)-3------|---------------0h2------|
E|---------------------------|--3-(0)-3---------------|


[Intro]

Guitar 2
e|----|-------------|-----------|----|--0--------------0---3----|
B|----|-------------|-----------|----|-----3--(0)---3-----------|
G|----|-------------|---7h9p7~--|----|------------- ------------|
D|----|-----7-------|-----------|----|--------------------------|
A|----|-------9s7s9-|-----------|----|--------------------------|
E|----|-------------|-----------|----|--------------------------|

e|--3------------3-------|--0---------0--3--|--3-----3-----3--|
B|-----3--3s4s5-----5s3--|----3--0--3-------|-----3-----3-----|
G|-----------------------|------------------|-----------------|
D|-----------------------|------------------|-----------------|
A|-----------------------|------------------|-----------------|
E|-----------------------|------------------|-----------------|


[Verse] 

Guitar 1
e|--------------------3--|---------------------------|----------------3----|
B|-------3---------3--3--|-------3-------------------|-----3-------3--3----|
G|-------2---------0--0--|-------0--------0--0-------|-----2-------0--0----|
D|--0-0--0---------2--2--|-------0------0------------|-0-0-0-------2--2----|
A|----------3--3---------|----------0h2---------0h2--|--------3--3---------|
E|-----------------------|--3--3---------------------|---------------------|

                      (x2)
e|-----------------------|----------------------------------|----------------|
B|-------3----------3----|----------------------------------|----------------|
G|-------0----------0----|--------7---7-----------5--5------|--------0--0----|
D|-------0----------0----|--------7---7---------------------|-----0----------|
A|-----------------------|--7-8-9--------9s0--6h7------7s5--|-0h2------------|
E|--3--3----(0)--3-------|----------------------------------|--------------3-|

e|------------------------------------|------------------------|
B|------------------------------------|------------------------|
G|---------7---7-----------5--5-------|-------0--0-------------|
D|---------7---7----------------------|-----0-------------0----|
A|--7-8-9---------9s0--6h7--------7s5-|-0h2-----------0h2------|
E|------------------------------------|------------3-----------|


[Verse] 

Guitar 2                                                                      
e|---0----------0--3-|-3---------3------|--0--------0--3-|-3-----3----3--|
B|-----3--0--3-------|----3--3s5----5s3-|----3-0--3------|----3-----3----|
G|-------------------|------------------|----------------|---------------|
D|-------------------|------------------|----------------|---------------|
A|-------------------|------------------|----------------|---------------|
E|-------------------|------------------|----------------|---------------|(x2)

e|--3-----3-----3s--|------------------------------|----------------|
B|-----3-----3------|------------------------------|----------------|
G|------------------|---------7-------------5------|--------0--H12--|
D|------------------|---------7-------------5------|-----------H12--|
A|------------------|--7h8h9-----9s0--5h6h7---7s0--|-0h1h2----------|
E|------------------|------------------------------|----------------|

e|------------------------------------|----------------------|
B|------------------------------------|--------------H12~----|
G|--------7--7-------------5--5-------|--------0-----H12~----|
D|--------7----------------5--5-------|--------------H12~----|
A|--7h8h9-------7s0--5h6h7-------7s0--|-0h1h2----------------|
E|------------------------------------|----------------------|


[Chorus] 

Guitar 1
e|--------------------------------|----------------------|--------------------|
B|----------3---------------------|----------------------|--------------------|
G|----------0--------0------------|----------------------|--------------------|
D|----------0------0---2p0--------|--7--9--7s--5--7--5-3-|-------------0-2p0--|
A|-------------0h2----------0h2s5-|--5--5--5s--3--3--3---|-5--5-5-7-0h2-----3-|
E|-(0)--3-------------------------|----------------------|-3--3---------------|

e|---------------------------|---------------------------------|
B|---------------------------|---------------------------------|
G|---------------------------|-----0-----0-----0-----0-----0---|
D|---7--9--7-s---5--7--5--X--|-0h2---0h2---0h2---0h2---0h2-----|
A|-X-5--5--5-s---3--3--3--X--|---------------------------------|
E|---------------------------|---------------------------------|

e|-------------------------------|------------------------------|
B|-------------------------------|------------------------------|
G|-------------------------------|------------------------------|
D|-------7--9--7-----5--7--5--3--|-------------------0-2p0------|
A|--3s5--5--5--5--X--3--3--3-----|--5--5---5--7--0h2-------3----|
E|-------------------------------|--3--3------3-----------------|

e|-------------------------|---------------1--0----------------|
B|-------------------------|---------------1--1----------------|
G|-------------------------|---------------2--0----------------|
D|----7--9---7-s--5--7---5-|---------------3--2--SOLO----------|
A|-X--5--5---5-s--3--3---3-|--5--5--5--7---3--3----------------|
E|-------------------------|--3--3-----3---1-------------------|


[Chorus]

Guitar 2
e|-----------------------|----------------------|---------------------|
B|-----------------------|----------------------|---------------------|
G|-----------------------|--------------------5-|---------------------|
D|----7--9--7----5--7--5-|--------------------5-|-7-7-9-7s5--5--7--5--|
A|--5-5--5--5s3--3--3--3-|--5--5--X-X-7-X-5-X-3-|-5-5-5-5s3--3--3--3--|
E|-----------------------|--3--3--X-X-3-X-3-X---|---------------------|


e|-----------------|---------------------|-------------------------|
B|-----------------|---------------------|-------------------------|
G|--------5--5-----|---------------------|----------------------5--|
D|--------5--5-s7--|-7--9--7s5--5--7--5--|----------------------5--|
A|--5--7--3--3-s5--|-5--5--5s3--3--3--3--|--5--5--X--X--7--5-5--3--|
E|--3--3-----------|---------------------|--3--3--X--X--3--3-3-----|


e|-------------------------|------------------1--0-------------|
B|-------------------------|------------------1--1-------------|
G|-------------------------|------------------2--0-------------|
D|--7--7---9--7s5--5--7--5-|------------------3--2--SOLO-------|
A|--5--5--5---5s3--3--3--3-|--5--5--x--X--5---3--3-------------|
E|-------------------------|--3--3--X--X--3---1----------------|


(this is the first solo , on both versions, but the single
doesn't include the second longer solo, so i'm not going to!)


[Guitar Solo]

Okay if you want i'll let you put a little bit more distortion on
to hide you mistakes now, it might also make the solo have a little
more impact to 


e|-15b17b15~|-14-----10~-10-10-10----8---------------|-------------------3-5-3-|
B|----------|----15---------------10----11-10-8-10---|-8-8-10--10b12-3s5-------|
G|----------|--------------------------------------9-|--------9----------------|
D|----------|----------------------------------------|-------------------------|
A|----------|----------------------------------------|-------------------------|
E|----------|----------------------------------------|-------------------------|

e|--5b7----------3-5---3--5b6b5--3-|-3--------3----------------------|
B|-------3--4--5-----5-------------|---5s3s5-----3-------------------|
G|---------------------------------|---------------4h5p4-------------|
D|---------------------------------|---------------------5-0--0bd0---|
A|---------------------------------|---------------------------------|
E|---------------------------------|---------------------------------|



************************************

| p    Pull-off
| (n)  Ghost note
| h    Hammer-on
| b    Bend
| x    Dead note
| ~    Vibrato
| H    harmonics   
| s    slide 

************************************
Suggest correction
comments
print report bad tab
94 comments total. Showing first comments.
+5 reply
Ans 45 Feb 09, 2002 12:00 AM

you copied this strate from the book

+2 reply
J.REYNOLDS 0 Feb 19, 2002 12:00 AM

Dude the intro is so WRONG!!!!!

+1 reply
guitarplayer34 10 Mar 09, 2002 12:00 AM

I agree about the intro. Listen to the song before you fucking tab it

guest
You may want to rate the tab now too:
select rating
Wanna post a correction for this tab? Suggest correction