Oops, an error
Loading. Please wait.
We have an official Sweet Home Alabama tab made by UG professional guitarists. Check out the tab »
×
98,416 views 165 this week
16 commentsread comments
1 2 3 4 5
x 37
add to favorites
×
Save as Personal and add changes to this tab that will be seen only by you. Learn more ›
×
You can save this tab as Personal to edit and correct it or add notes. All changes will be seen only by you. Learn more »
launch autoscroll
font size
0
reset
guitar tuner
backing track
0:00
0:00
edit
Autoscroll
slow
fast
+/-
esc
set tempo
stop
Author
Difficulty
intermediate
A classic hit by the boys from Jacksonville

Tabbed by: BASSteve

Tuning: EADG

Time signature: 4/4

r = rest (listen for duration)
h = hammer on
/ = slide (low to high)
||= measure gets repeated (see number of times above measure, e.g. 4x)


*My tabs are meant to be read in conjunction with listening to the song.
In other words, there are no specific notations to account for note/rest duration.
However, you will find that I've made an attempt to strategically space the notes
and rests within their respective measures in order to represent the appropriate
durations.


[INTRO]

   2x
G||--------------------------------|--------------------------------||
D||--------------------------------|--------------------------------||
A||r-------------------------------|--------------------------------||
E||--------------------------------|--------------------------------||

G|--------------------------------|--------------------------------|
D|--------------------------------|--------------------------------|
A|5---5---r-----5-3---3---r-------|--------------3-----------------|
E|--------------------------------|3---3---r-------3---3---r-------|

G|--------------------------------|--------------------------------|
D|--------------------------------|--------------------------------|
A|5---5---r-----5-3---3---r-------|--------------3-----------------|
E|--------------------------------|3---3---r-------3---3---r---3/5-|


[VERSE 1]

   4x
G||--------7---------------5-------|--------------------------------||
D||--------------------------------|--------5-----------------------||
A||5---5---------5-3---3---------3-|----------------------------3---||
E||--------------------------------|3---3---------0-3---3---3-5-----||

G|--------------------5---5-------|--------------------------------|
D|--------------------------------|--------5---------------5-------|
A|5---5-------5h7-0h3-------------|--------------------------------|
E|--------5h7-------------------0-|3---3-----3---0-3---3-----3-----|

G|--------------------5---5-------|--------------------------------|
D|--------------------------------|--------5-----------------------|
A|5---5-------5h7-0h3-------------|----------------------------3---|
E|--------5h7-------------------0-|3---3-----3---0-3---3---3-5-----|


[VERSE 2]

   3x
G||--------7---------------5-------|--------------------------------||
D||--------------------------------|--------5-----------------------||
A||5---5---------5-3---3---------3-|----------------------------3---||
E||--------------------------------|3---3---------0-3---3---3-5-----||

G|--------7---------------5-------|--------------------------------|
D|--------------------------------|--------5-----------------------|
A|5---5---------5-3---3---------3-|--------------------5-7-5-------|
E|--------------------------------|3---3-----------5-7-------7-5-7-|


[CHORUS 1]

G|--------7---------------5-------|--------------------------------|
D|--------------------------------|--------------------------------|
A|5---5---------5-3---3---------3-|--------------------------3/----|
E|--------------------------------|3---3-r-----3-r-----3-r---------|

G|--------7---------------5-------|--------------------------------|
D|--------------------------------|--------------------------------|
A|5---5---------5-3---3---------3-|--------------------3-r---3/----|
E|--------------------------------|3---3-r-----3-r-----------------|

G|--------7---------------5-------|--------------------------------|
D|--------------------------------|--------------------------------|
A|5---5---------5-3---3---------3-|--------------------------3/----|
E|--------------------------------|3---3-r-----3-r-----3-r---------|

G|--------7---------------5-------|--------------------------------|
D|--------------------------------|----------------3-------2-------|
A|5---5---------5-3---3---------3-|--------------------------------|
E|--------------------------------|3---3-r-----3-r-----------------|


[SOLO 1]

   2x
G||--------7---------------5-------|--------------------------------||
D||--------------------------------|--------5---------------5-------||
A||5---5---------5-3---3---------3-|--------------3-----------------||
E||--------------------------------|3---3-----------3---3-----------||


[VERSE 3]

G|--------7---------------5-------|--------------------------------|
D|--------------------------------|--------5-------3---------------|
A|5---5---------5-3---3---------3-|--------------------------------|
E|--------------------------------|3---3-------------------0-------|

   2x
G||--------7---------------5-------|--------------------------------||
D||--------------------------------|--------5---------------5-------||
A||5---5---------5-3---3---------3-|--------------3-----------------||
E||--------------------------------|3---3-----------3---3-----------||

G|--------7---------------5-------|--------------------------------|
D|--------------------------------|--------5-----------------------|
A|5---5---------5-3---3---------3-|--------------------5-7-5-------|
E|--------------------------------|3---3-----------5-7-------7-5-7-|


[CHORUS 2]

G|--------7---------------5-------|--------------------------------|
D|--------------------------------|--------------------------------|
A|5---5---------5-3---3---------3-|--------------------------3/----|
E|--------------------------------|3---3-r-----3-r-----3-r---------|

G|--------7---------------5-------|--------------------------------|
D|--------------------------------|--------------------------------|
A|5---5---------5-3---3---------3-|--------------------3-r---3/----|
E|--------------------------------|3---3-r-----3-r-----------------|

G|--------7---------------5-------|--------------------------------|
D|--------------------------------|--------------------------------|
A|5---5---------5-3---3---------3-|--------------------------3/----|
E|--------------------------------|3---3-r-----3-r-----3-r---------|

G|--------7---------------5-------|--------------------------------|
D|--------------------------------|--------------------------------|
A|5---5---------5-3---3---------3-|--------------------------------|
E|--------------------------------|3---3-r-----3-r-----3-r---3/----|


[SOLO 2]

   8x (with variation)
G||--------7---------------5-------|--------------------------------||
D||--------------------------------|--------5-----------------------||
A||5---5-----5---5-3---3-----3---3-|----------------------------3---||
E||--------------------------------|3---3-----3---0-3---3---3-5-----||

G|--------------------5---5-------|--------------------------------|
D|--------------------------------|--------5---------------5-------|
A|5---5-------5h7-0h3-------------|--------------------------------|
E|--------5h7-------------------0-|3---3-----3---0-3---3-----3-----|

G|--------------------5---5-------|--------------------------------|
D|--------------------------------|--------5-----------------------|
A|5---5-------5h7-0h3-------------|----------------------------3---|
E|--------5h7-------------------0-|3---3-----3---0-3---3---3-5-----|

VERSE 2

CHORUS 1

CHORUS 2

SOLO 2 (to fade)


************************************

| h  Hammer-on
| r  Release
| /  Slide up

************************************

            
            
Suggest correction
Creating personal tab
Creating personal tab
You can edit any tab online and save it as your Personal.

You can edit, replace or remove any tab part or add personal notes – all changes will be seen only by you.

Personal tabs can be accessed anytime from any device, even offline.
Learn more »
comments
print report bad tab
16 comments total. Showing first comments.
+1 reply
greenday2003 837 Aug 15, 2010 11:23 AM

Great job!! Most accurate by far!!

+1 reply
BASSteve 1,328 Aug 15, 2010 04:45 PM

Thank you sir

0 reply
meddavisn 10 Feb 07, 2011 01:24 AM

i might just be being dumb but i can't see the little 'break' instrumental parts. but looks good otherwise

guest
You may want to rate the tab now too:
select rating
Wanna post a correction for this tab? Suggest correction