Oops, an error
Loading. Please wait.
We have an official Sweet Home Alabama tab made by UG professional guitarists. Check out the tab »
×
354,361 views 402 this week
17 commentsread comments
1 2 3 4 5
x 225
add to favorites
launch autoscroll
font size
0
reset
how to read this tab
guitar tuner
backing track
0:00
0:00
Autoscroll
slow
fast
+/-
esc
set tempo
stop
Author
Difficulty
Tuning
intermediate
E A D G B E
Tuning: E A D G B E  

[Intro]
                              (RIFT 1)          (ALTERNATE RIFT)
e|------------------------------------------|-------------------------------|
B|----3----------3--------------------------|-------------------------------|
G|------2-0--------0-------0----------------|-------0-----------------------|
D|0-0----------------0------------0h2p0-----|-------0-----------------------|
A|------------3-3-------------0h2--------3--|---1/2-------------------------|
E|---------------------3-3------------------|---------3---------------------|

e|--------------------------------------------------------------------------|
B|----3---------3-----------------------------------------------------------|
G|------2-0-------0-------0-----0-2p0-0-4p0-0-5b----------------------------|
D|0-0---------------0-------------------------------------------------------|
A|----------3-3-------------------------------------------------------------|
E|--------------------3-3---------------------------------------------------|

[Verse]
e|--------------3-----------------------------------------------------------|
B|----3---------3-------3---------------------------------------------------|
G|----2---------0-------0---------------------------------------------------|
D|0-0-0-0---------------0------0h2p0----------------------------------------|
A|--------3-x-3------------0h2-------3--------------------------------------|
E|----------------3-x-3-----------------------------------------------------|

e|-----------3--------------------------------------------------------------|
B|----3------3-----3--------------------------------------------------------|
G|----2------0-----0--------------------------------------------------------|
D|0-0-0------------0---------2-4~-------------------------------------------|
A|-------3-3-----------0-2h4------------------------------------------------|
E|-------------3-3----------------------------------------------------------|

[Bridge]

you can use this... (Recommended)

e|--------7-7-7-------5-5----3-3-3-3-3-----------------------------------------|
B|--------7-7-7-------5-5----3-3-3-3-3-----------------------------------------|
G|--------7-7-7-------5-5----4-4-4-4-4-----------------------------------------|
D|--------7-7-7-------5-5----5-5-5-5-5-----------------------------------------|
A|-7h8h9--9-9-9---5h7-7-7----5-5-5-5-5-----------------------------------------|
E|---------------------------3-3-3-3-3-----------------------------------------|

...or this (or you could add a guitar and play both!)

e|--------------------------------------------------------------------------|
B|---------3-3--------1-1-1----------0--------------------------------------|
G|--------------------------------------------------------------------------|
D|--2-3-4-----4--1h2--------2-------------------2---------------------------|
A|----------------------------1-2-3---------0h2-----------------------------|
E|---------------------------------------3----------------------------------|

[Chorus]
e|-----------3--------------------------------------------------------------|
B|-----3-----3-----3--------------------------------------------------------|
G|-----2-----0-----0--------------------------------------------------------|
D|0-0--0-----------0------0h2p0---------------------------------------------|
A|-------3-3----------0h2-------3-------------------------------------------|
E|-------------3-3----------------------------------------------------------|

e|-----------3--------------------------------------------------------------|
B|-----3-----3-----3--------------------------------------------------------|
G|-----2-----0-----0---------0------0------0------0-------------------------|
D|0-0--0-----------0------0h2----0h2----0h2----0h2--------------------------|
A|-------3-3----------------------------------------------------------------|
E|-------------3-3----------------------------------------------------------|

e|-----------3--------------------------------------------------------------|
B|-----3-----3-----3--------------------------------------------------------|
G|-----2-----0-----0--------------------------------------------------------|
D|0-0--0-----------0------0h2p0---------------------------------------------|
A|-------3-3----------0h2-------3-------------------------------------------|
E|-------------3-3----------------------------------------------------------|

e|-----------3--------------------------------------------------------------|
B|-----3-----3-----3--------------------------------------------------------|
G|-----2-----0-----0--------------------------------------------------------|
D|0-0--0-----------0--------------------------------------------------------|
A|-------3-3----------------------------------------------------------------|
E|-------------3-3----------------------------------------------------------|


************************************

| h  Hammer-on
| p  Pull-off
| /  Slide up
| b  Bend
| x  Dead note
| ~  Vibrato

************************************
Suggest correction
comments
print report bad tab
17 comments total. Showing first comments.
+1 reply
metalhead601 208 Oct 23, 2012 05:16 PM

I think instead of this on the intro 2p0-0-4p0-0-5b- it should be 2p0-0-4p0-0-7b-. Just a very minor change but I think that's right.

+1 reply
jholmes98 65 Nov 12, 2012 10:42 AM

Awesome, more of the same please.:-)

+5 reply
Maniacoustic 41 Feb 16, 2013 05:06 AM

You are missing some notes here. Like the intro and chorus

A|-----3-3-------
E|-----------3-3-
should be
A|-----3-0-3-------
E|-----------3-0-3-
or
A|-----3-X-3-------
E|-----------3-X-3-


And this part:
e|-------------------------
B|-------------------------
G|-------------------------
D|0h2h4-0h2h4-0h2h4-0h2-0--
A|------------------------3
E|-------------------------


Sound better like this:
e|-------------------------
B|-------------------------
G|----0-----0-----0-----0--
D|0h2---0h2---0h2---0h2----
A|-------------------------
E|-------------------------

guest
You may want to rate the tab now too:
select rating
Wanna post a correction for this tab? Suggest correction