Oops, an error
Loading. Please wait.

Sweet Home Alabama Tab

version 6
version 6
282,481 views 1,722 this week
12 commentsread comments
1 2 3 4 5
excellent!
x 172
add to favorites
launch autoscroll
font size
0
reset
how to read this tab
guitar tuner
Tab Pro tools
  • play this tab
  • loop segment
  • change instrument
  • show fretboard
  • metronome
×
Best way to learn
"Sweet Home Alabama"
Autoscroll
slow
fast
+/-
esc
set tempo
stop
Contributor
Difficulty
intermediate
----------------------------------------------------------------------------
Sweet Home Alabama - Lynyrd Skynyrd

----------------------------------------------------------------------------
Tabbed by: Malbrez
Email: cmbrez@hotmail.com

Tuning: Standard

UPDATE #1: The Bridge was fixed, some minor flaws and i added strum pattern
UPDATE #2: the chords to the bridge, more flowing and sounds better
UPDATE #3: appealing to the reader, a change in the intro
UPDATE #4: minor fix (s/o to Maniacoustic, thanks

INTRO
e|--------------------------------------------------------------------------|
B|----3----------3----------------------------------------------------------|
G|------2-0--------0-------0------------------------------------------------|
D|0-0----------------0------------0h2p0-------------------------------------|
A|------------3-3-------------0h2--------3----------------------------------|
E|---------------------3-3--------------------------------------------------|

e|--------------------------------------------------------------------------|
B|----3---------3-----------------------------------------------------------|
G|------2-0-------0-------0-----0-2p0-0-4p0-0-5b----------------------------|
D|0-0---------------0-------------------------------------------------------|
A|----------3-3-------------------------------------------------------------|
E|--------------------3-3---------------------------------------------------|

VERSE
e|------------3-------------------------------------------------------------|
B|----3-------3-----3-------------------------------------------------------|
G|----2-------0-----0-------------------------------------------------------|
D|0-0-0-0-----------0------0h2p0--------------------------------------------|
A|--------3-3----------0h2-------3------------------------------------------|
E|--------------3-3---------------------------------------------------------|

e|-----------3--------------------------------------------------------------|
B|----3------3-----3--------------------------------------------------------|
G|----2------0-----0--------------------------------------------------------|
D|0-0-0------------0---------2-4~-------------------------------------------|
A|-------3-3-----------0-2h4------------------------------------------------|
E|-------------3-3----------------------------------------------------------|


BRIDGE
you can use this... (Recommended)
         D U D      D D  D U D U D
e|-------7-7-7------5-5---3-3-3-3-3-----------------------------------------|
B|-------7-7-7------5-5---3-3-3-3-3-----------------------------------------|
G|-------7-7-7------5-5---4-4-4-4-4-----------------------------------------|
D|-------7-7-7------5-5---5-5-5-5-5-----------------------------------------|
A|-7h8h9-9-9-9--5h7-7-7---5-5-5-5-5-----------------------------------------|
E|------------------------3-3-3-3-3-----------------------------------------|

...or this (or you could add a guitar and play both!)

e|--------------------------------------------------------------------------|
B|---------3-3--------1-1-1----------0--------------------------------------|
G|--------------------------------------------------------------------------|
D|--2-3-4-----4--1h2--------2-------------------2---------------------------|
A|----------------------------1-2-3---------0h2-----------------------------|
E|---------------------------------------3----------------------------------|

Chorus
e|-----------3--------------------------------------------------------------|
B|-----3-----3-----3--------------------------------------------------------|
G|-----2-----0-----0--------------------------------------------------------|
D|0-0--0-----------0------0h2p0---------------------------------------------|
A|-------3-3----------0h2-------3-------------------------------------------|
E|-------------3-3----------------------------------------------------------|

e|-----------3--------------------------------------------------------------|
B|-----3-----3-----3--------------------------------------------------------|
G|-----2-----0-----0---------0------0------0------0-------------------------|
D|0-0--0-----------0------0h2----0h2----0h2----0h2--------------------------|
A|-------3-3----------------------------------------------------------------|
E|-------------3-3----------------------------------------------------------|

e|-----------3--------------------------------------------------------------|
B|-----3-----3-----3--------------------------------------------------------|
G|-----2-----0-----0--------------------------------------------------------|
D|0-0--0-----------0------0h2p0---------------------------------------------|
A|-------3-3----------0h2-------3-------------------------------------------|
E|-------------3-3----------------------------------------------------------|

e|-----------3--------------------------------------------------------------|
B|-----3-----3-----3--------------------------------------------------------|
G|-----2-----0-----0--------------------------------------------------------|
D|0-0--0-----------0--------------------------------------------------------|
A|-------3-3----------------------------------------------------------------|
E|-------------3-3----------------------------------------------------------|



in going to try and add BOTH solos later but until then this is what i got.
thanks
comments
print report bad tab
12 comments total. Showing first comments.
+2 reply
metalhead601 wrote on October 23 2012, 09:16 pm

I think instead of this on the intro 2p0-0-4p0-0-5b- it should be 2p0-0-4p0-0-7b-. Just a very minor change but I think that's right.

+1 reply
jholmes98 wrote on November 12 2012, 03:42 pm

Awesome, more of the same please.:-)

+4 reply
Maniacoustic wrote on February 16 2013, 10:06 am

You are missing some notes here. Like the intro and chorus


A|-----3-3-------
E|-----------3-3-
should be
A|-----3-0-3-------
E|-----------3-0-3-
or
A|-----3-X-3-------
E|-----------3-X-3-


And this part:
e|-------------------------
B|-------------------------
G|-------------------------
D|0h2h4-0h2h4-0h2h4-0h2-0--
A|------------------------3
E|-------------------------


Sound better like this:
e|-------------------------
B|-------------------------
G|----0-----0-----0-----0--
D|0h2---0h2---0h2---0h2----
A|-------------------------
E|-------------------------

I want to post or [tab]
guest
You may want to rate the tab now too:
select rating
Please do not post tabs as comments. Select "correction" instead!