Oops, an error
Loading. Please wait.

That Smell bass

version 3
version 3

Whole song

Interactive

2,789 views 9 this week
no commentswrite comment
1 2 3 4 5
3 more votes to show rating
add to favorites
×
Save as Personal and add changes to this tab that will be seen only by you. Learn more ›
×
You can save this tab as Personal to edit and correct it or add notes. All changes will be seen only by you. Learn more »
launch autoscroll
font size
0
reset
guitar tuner
backing track
0:00
0:00
edit
Autoscroll
slow
fast
+/-
esc
set tempo
stop
Author
#----------------------------------PLEASE NOTE---------------------------------#
#This file is the author's own work and represents their interpretation of the #
#song. You may only use this file for private study, scholarship, or research. #
#------------------------------------------------------------------------------#

THAT SMELL (Bassline)




Transcribed by Gary Ramsey

 

 

Gtr I (E A D G) - 'Staff'


 4/4
  Gtr I
  Q  Q  H      Q  +S  S E Q  E E   Q  +S  S E Q  Q    Q  +S  S E Q  E E
|------------|-------------------|------------------|-------------------|
|------------|-------------------|------------2-----|-------------------|
|-0----------|----------0-3------|-0--(0)---3----3--|----------0-3------|
|------------|-1--(1)--------3-0-|------------------|-1--(1)--------3-0-|


  Q  +S  S E Q  Q    Q  +S  S E E E E E   Q  +S  S E Q  E E
|------------------|--------------------|-------------------|
|------------2-----|-3--(3)-------3-3---|------------2----2-|
|-0--(0)---3----3--|----------0-3-----3-|-0--(0)---3----3---|
|------------------|--------------------|-------------------|


  Q  +S  S S S +S  E S +S  E S   S E. +Q   +H       +E. S +Q   +E  S S +E  S S
|------------------5-----------|------------------|----------------------------|
|-3--(3)---5-7-(7)---7-(7)---5-|---7--(7)--(7)----|-(7)-7-(7)--(7)---7-(7)-5-7-|
|------------------------------|-7----------------|----------------------------|
|------------------------------|------------------|----------------------------|


  S E S +E  S S +E  S S +E  S S   +E  S S +E  S S +E  S S +E  S S
|-------------------------------|---------------------------------|
|-5-----------------------------|-----------------------2-(2)-----|
|---7---------0-(0)---3-(3)-----|-------0-(0)---3-(3)-----------3-|
|-----1-(1)-------------------3-|-(3)-----------------------------|


  +S  E S +E  S S +E  S S +E  S S
|----------------------------------|
|----------------------------------|
|-(3)-----------0-(0)---3-(3)------|
|-----0-1-(1)-------------------3--|


  +E  S S +E  S S +E  S S +E  S S   +S  E S +E  S S +E  S S +E  S S
|---------------------------------|---------------------------------|
|-----------------------2-(2)-----|---------------------------------|
|-------0-(0)---3-(3)-----------3-|-(3)-----------0-(0)---3-(3)-----|
|-(3)-----------------------------|-----0-1-(1)-------------------3-|


  +E  S S +E  S S +E  S S +E  S S
|----------------------------------|
|-----------------------2-(2)------|
|-------0-(0)---3-(3)-----------3--|
|-(3)------------------------------|


  +S  E S +E  S S +E  S S +E  S S   +E  S S +E  S S +E  S S +E  S S
|---------------------------------|---------------------------------|
|---------------------------------|-----------------------2-(2)-2---|
|-(3)-----------0-(0)---3-(3)-----|-------0-(0)---3-(3)-----------3-|
|-----0-1-(1)-------------------3-|-(3)-----------------------------|


  +S  E S +E  S S +S  E S +S  E S
|----------------------------------|
|----------------------------------|
|-(3)-------------------------3----|
|-----0-1-(1)---1-(1)-0-1-(1)---3--|


  +S  E. +E  S S +S  E S +E  S S
|--------------------------------|
|----------------------2-(2)-2---|
|-----0--(0)---2-(2)-3---------3-|
|-(3)----------------------------|


  +S  E S +E  S S +S  E S +S  E S   +S  E. +E  S S +S  E S +S  E.
|---------------------------------|-------------------------------|
|---------------------------------|-------------------------------|
|-(3)-------------------------3---|-----0--(0)---0-(0)---------0--|
|-----0-1-(1)---1-(1)-0-1-(1)---3-|-(3)----------------0-3-(3)----|


  S E S +E  S S +S  E S +S  E S   +S  E. +E  S S +S  E S +E  S S
|-------------------------------|--------------------------------|
|-------------------------------|----------------------2-(2)-2---|
|---------------------------3---|-----0--(0)---2-(2)-3---------3-|
|---0-1-(1)---1-(1)-0-1-(1)---3-|-(3)----------------------------|


  +S  E S +E  S S +S  E S +S  E S
|---------------------------------|
|---------------------------------|
|-(3)-------------------------3---|
|-----0-1-(1)---1-(1)-0-1-(1)---3-|


  +S  E. +Q   +H       +E  S S +E  S S +E  S S +E  S S
|--------------------|-------2-(2)---2-(2)---2-(2)---2-|
|--------------------|---------------------------------|
|-----0--(0)--(0)----|-(0)-----------------------------|
|-(3)----------------|---------------------------------|


  +E  S S +E  S S +E  S S +E  S S
|-(2)------------------------------|
|----------------------------------|
|---------------0-(0)---3-(3)------|
|-------1-(1)-------------------3--|


  +E  S S +E  S S +E  S S +E  S S   +S  E S +E  S S +E  S S +E  S S
|---------------------------------|---------------------------------|
|---------------------------------|---------------------------------|
|-------0-(0)---2-(2)---3-(3)---5-|-(5)-7-8-(8)---7-(7)---5-(5)---3-|
|-(3)-----------------------------|---------------------------------|


  +E  S S +E  S S +E  S S +E  S S
|----------------------------------|
|----------------------------------|
|-(3)---0-(0)---2-(2)---3-(3)---5--|
|----------------------------------|


  +S  E S +E  S  S  +E  S  S  +E  S  S
|--------------------------------------|
|-----------------------------------10-|
|-(5)-7-8-(8)---10-(10)---12-(12)------|
|--------------------------------------|


   +E  S  S  +E  S S +E  S S +E  S S   +E  S S +E  S S +E  S S +E  S S
|------------------------------------|----------------------------------|
|-(10)-----------------------------5-|-(5)---3-(3)---2-(2)---0-(0)------|
|--------12-(12)-----------7-(7)-----|-------------------------------3--|
|------------------8-(8)-------------|----------------------------------|


  +E  S S +E  S S +S  E S +E  S S   +S  E S +E  S S +E  S S +E  S S
|---------------------------------|---------------------------------|
|-----------------------2-(2)-----|---------------------------------|
|-(3)---0-(0)---2-(2)-3---------3-|-(3)-----------0-(0)---3-(3)-----|
|---------------------------------|-----0-1-(1)-------------------3-|


  +E  S S +E  S S +E  S S +E  S S
|----------------------------------|
|-----------------------2-(2)------|
|-------0-(0)---3-(3)-----------3--|
|-(3)------------------------------|


  +S  E S +E  S S +E  S S +E  S S
|---------------------------------|
|---------------------------------|
|-(3)-----------0-(0)---3-(3)-----|
|-----0-1-(1)-------------------3-|


  +E  S S +Q   S E S +S  E S   +S  E S +E  S S +E  S S +E  S S
|------------------------2---|---------------------------------|
|----------------------------|-----5---------------------------|
|-------0-(0)------0-(0)-----|---------------0-(0)---3-(3)-----|
|-(3)------------0---------3-|-(3)---1-(1)-------------------3-|


  +E  S S +E  S S +E  S S +E  S S
|---------------------------------|
|-----------------------2-(2)-----|
|-------0-(0)---3-(3)-----------3-|
|-(3)-----------------------------|


  +S  E S +E  S S +E  S S +E  S S   +E  S S +Q   S E S +S  E S
|---------------------------------|----------------------------|
|---------------------------------|----------------------------|
|-(3)-----------0-(0)---3-(3)-----|-------0-(0)------0-(0)-----|
|-----0-1-(1)-------------------3-|-(3)------------0-------0-3-|


  +S  E S +E  S S +S  E S +S  E S
|---------------------------------|
|---------------------------------|
|-----------------------------3---|
|-(3)-0-1-(1)---1-(1)-0-1-(1)---3-|


  +S  E. +E  S S +S  E S +E  S S   +S  E S +E  S S +S  E S +S  E S
|--------------------------------|---------------------------------|
|----------------------2-(2)-2---|---------------------------------|
|-----0--(0)---0-(0)-3---------3-|-(3)-------------------------3---|
|-(3)----------------------------|-----0-1-(1)---1-(1)-0-1-(1)---3-|


  +S  E. +E  S S +S  E S +S  E.   S E S +E  S S +S  E S +S  E S
|-------------------------------|-------------------------------|
|-------------------------------|-------------------------------|
|-----0--(0)---0-(0)---------0--|---------------------------3---|
|-(3)----------------0-3-(3)----|---0-1-(1)---1-(1)-0-1-(1)---3-|


  +S  E. +E  S S +S  E S +E  S S
|--------------------------------|
|----------------------2-(2)-2---|
|-----0--(0)---0-(0)-3---------3-|
|-(3)----------------------------|


  +S  E S +E  S S +S  S E E. S   +S  E S +Q   +H       +H     +E  S S +S  E S
|------------------------------|---------------------|--------------2-(2)---2-|
|------------------------------|---------------------|--------------------2---|
|-(3)--------------------------|-------0-(0)--(0)----|-(0)----(0)-------------|
|-----0-1-(1)---1-(1)-----1--3-|-(3)-----------------|------------------------|


  +S  E  S  +S   E  S  +Q    +S   E  S
|-(2)-9--------------------------------|
|-------10-(10)---------------------15-|
|--------------------------------15----|
|---------------12-13-(13)--(13)-------|


   +S   Q   E  S  +S   E.  +S   E  S    +S   Q   E  S  +Q    +S   E  S
|------------------------------------|---------------------------------|
|-(15)----------------------------10-|-(10)-------------------------15-|
|------15-----12-(12)----------12----|------12-------------------15----|
|----------13---------12--(12)-------|----------12-13-(13)--(13)-------|


   +S   Q   E  S  +E  S  S  +E.  S    +S   E  S  +E  S  S  +S   E.  +E.  S
|----------------------------------|------14-------------------------------|
|-(15)-----------------------------|---------14-(14)-----------------------|
|------15-----12-(12)-----------12-|-(12)-------------------------------15-|
|----------13-----------12-(12)----|-------------------12-(12)-13--(13)----|


   +S   E  S  +E  S  S  +S   E  S  +E.  S
|-----------------------------------------|
|------15---------------------------------|
|-(15)----15-(15)-----------12---------12-|
|-------------------13-(13)----12-(12)----|


   +S   E  S  +E  S  S  +S   E.  +E.  S
|---------------------------------------|
|------10-------------------------------|
|-(12)----12-(12)--------------------15-|
|-------------------12-(12)-13--(13)----|


   +S   E  S  +E  S  S  +S   E.  +Q      +H.      S  E.   S  Q   Q   Q  E.
|-------------------------------------|-------------14--|---14--14--14-----|
|------15-----------------------------|-----------------|------------------|
|-(15)----15-(15)-----------12--(12)--|-(12)------------|------------------|
|-------------------13-(13)-----------|-----------------|---------------1--|


  S E S +S  E S +S  E S +Q     S E S +S  Q  E S +S  E.
|----------------------------|-------------------------|
|----------------------------|-----------2-------------|
|-------------3-(3)---0-(0)--|---2-3-(3)----3----------|
|---1-0-(0)-1-------3--------|----------------0-(0)-1--|


  S E S +S  E S +S  E S +Q
|-----------------------------|
|-----------------------------|
|-------------3-(3)---0-(0)---|
|---1-0-(0)-1-------3---------|


  S E S +S  E S +E  S S +S  E.
|------------------------------|
|------------------------------|
|---0---------0-(0)------------|
|-----0-(0)-3---------0-(0)-1--|


  S E S +S  E S +S  E S +Q     S E S +S  Q  E S +S  E.
|----------------------------|--------------------------|
|----------------------------|-----------2--------------|
|-------------3-(3)---0-(0)--|---2-3-(3)----3-----------|
|---1-0-(0)-1-------3--------|----------------0-(0)-1---|


  S E S +S  E S +S  E S +Q     S E S +S  Q  E S +S  E.
|----------------------------|-------------------------|
|----------------------------|-------------------------|
|-------------3-(3)---0-(0)--|---0---------------------|
|---1-0-(0)-1-------3--------|-----0-(0)-3--3-0-(0)-1--|


  S E S +S  E S +S  E S +S  E.
|-------------------------------|
|-------------------------------|
|---------------------0-(0)-0---|
|---1-1-(1)-1-3-(3)-------------|


  S Q  E S +S  E S +S  E.
|-------------------------|
|-------------------------|
|---0--0------------------|
|--------3-(3)-3-1-(1)-1--|


  S E S +S  E S +S  E S +S  E.   S Q  E S +S  E S +S  E.
|------------------------------|-------------------------|
|------------------------------|-------------------------|
|---------------------0-(0)-0--|---0--0------------------|
|---1-1-(1)-1-3-(3)------------|--------3-(3)-3-1-(1)-1--|


  S E S +S  E S +S  E S +S  E.   S Q  E S +S  E S +S  E.
|------------------------------|-------------------------|
|------------------------------|-------------------------|
|---------------------0-(0)-0--|---0--0------------------|
|---1-1-(1)-1-3-(3)------------|--------3-(3)-3-1-(1)-1--|


  S E S +S  E S +S  E S +S  E.
|-------------------------------|
|-------------------------------|
|---------------------0-(0)-0---|
|---1-1-(1)-1-3-(3)-------------|


  S Q  E S +S  E S +S  E.
|-------------------------|
|-------------------------|
|---0--0------------------|
|--------3-(3)-3-1-(1)-1--|


  S E S +S  E S +S  E S +S  E.   S Q  E S +S  E S +S  E.
|------------------------------|-------------------------|
|------------------------------|-------------------------|
|---------------------0-(0)-0--|---0--0------------------|
|---1-1-(1)-1-3-(3)------------|--------3-(3)-3-1-(1)-1--|


  S E S +S  E S +S  E S +S  E.   S Q  E S +S  E S +S  E.
|------------------------------|-------------------------|
|------------------------------|-------------------------|
|---------------------0-(0)-0--|---0--0------------------|
|---1-1-(1)-1-3-(3)------------|--------3-(3)-3-1-(1)-1--|


  S E S +S  E S +S  E S +S  E.
|-------------------------------|
|-------------------------------|
|---------------------0-(0)-0---|
|---1-1-(1)-1-3-(3)-------------|


  S Q  E S +S  E S +S  E.   S E S +S  E S +S  E S +S  E.
|-------------------------|------------------------------|
|-------------------------|------------------------------|
|---0--0------------------|---------------------0-(0)-0--|
|--------3-(3)-3-1-(1)-1--|---1-1-(1)-1-3-(3)------------|


  S Q  S S S S S S S S E S
|---2--2-0------------------|
|----------2---0---------2--|
|----------------3-0---3----|
|--------------------3------|


  +S  E S +E  S S +S  E S +S  E S   +S  E S +S  E. +Q   S E.   S Q  Q  Q  E S
|-----0---------------------------|--------------------------|----------------|
|-(2)-------------------0-(0)-----|--------------------------|----------------|
|---------------------2---------1-|-(1)-1-----------------0--|---0--0--0--0-0-|
|-------3-(3)---3-(3)-------------|-------1-(1)-1--(1)-------|----------------|


  +S  E S +S  E S +S  E S +S  E S
|---------------------------------|
|-------------------------------2-|
|-(0)-0-0-(0)-0-0-(0)-0-0-(0)-3---|
|---------------------------------|


  +S  E S +E  S S +S  E S +S  E S   +S  E S +S  E. +Q   S E.
|---------------------------------|--------------------------|
|-(2)-3-----------------0-(0)-----|--------------------------|
|---------------------2---------1-|-(1)-1-----------------0--|
|-------3-(3)---3-(3)-------------|-------1-(1)-1--(1)-------|


  S Q  Q  Q  E.   S Q   Q   E  S  +S  E.   S E S +S  E S +S  E S +Q
|---------2--5--|---9--12--14------------|----------------------------|
|------2--------|-------------14-(14)----|----------------------------|
|---3-----------|------------------------|-------------3-(3)---0-(0)--|
|---------------|---------------------1--|---1-0-(0)-1-------3--------|


  S E S +S  E. S E S +S  E.
|---------------------------|
|-----------2--2------------|
|---2-3-(3)------3----------|
|------------------0-(0)-1--|


  S E S +S  E S +S  E S +Q     S E S +S  E. S E S +S  E.
|----------------------------|---------------------------|
|----------------------------|-----------2--2------------|
|-------------3-(3)---0-(0)--|---2-3-(3)------3----------|
|---1-0-(0)-1-------3--------|------------------0-(0)-1--|


  S E S +S  E S +S  E S +Q     S E S +S  E. S E S +S  E.
|----------------------------|---------------------------|
|----------------------------|-----------2--2------------|
|-------------3-(3)---0-(0)--|---2-3-(3)------3----------|
|---1-0-(0)-1-------3--------|------------------0-(0)-1--|


  S E S +S  E S +S  E S +E. S
|------------------------------|
|------------------------------|
|-------------------3-0-(0)-0--|
|---1-0-(0)-1-0-(0)------------|


  +S  Q   E.  S  E  S  +S  E.   S Q  Q  Q  E.
|-----2--14-----14------------|---------------|
|------------14----14-(14)----|---------------|
|-(0)-------------------------|---0--3-----0--|
|--------------------------1--|---------3-----|


  S Q  Q  E S +S  E.   S Q  Q  Q  E.
|--------------------|---------------|
|------2-------------|---------------|
|---3-----3----------|---0--3-----0--|
|-----------0-(0)-1--|---------3-----|


  S Q  Q  E S +S  E.   S Q  Q  Q  E.   S Q  Q  E S +S  E.   S Q  Q  Q  E.
|--------------------|---------------|--------------------|---------------|
|------2-------------|---------------|------2-------------|---------------|
|---3-----3----------|---0--3-----0--|---3-----3----------|---0--3-----0--|
|-----------0-(0)-1--|---------3-----|-----------0-(0)-1--|---------3-----|


  +E  S S +S  E S +S  E S +S  E.
|--------------------------------|
|--------------------------------|
|-(0)---------0------------------|
|-------0-(0)---0-(0)-3-0-(0)-1--|


  S E S +S  E S +S  E S +Q     S E S +S  Q  E S +S  E.
|----------------------------|--------------------------|
|----------------------------|-----------2--------------|
|-------------3-(3)---0-(0)--|---2-3-(3)----3-----------|
|---1-0-(0)-1-------3--------|----------------0-(0)-1---|


  S E S +S  E S +S  E S +Q
|----------------------------|
|----------------------------|
|-------------3-(3)---0-(0)--|
|---1-0-(0)-1-------3--------|


  S E S +S  E S +E  S S +S  E.   S E S +S  E S +S  E S +Q
|------------------------------|----------------------------|
|------------------------------|----------------------------|
|---0---------0-(0)------------|-------------3-(3)---0-(0)--|
|-----0-(0)-3---------0-(0)-1--|---1-0-(0)-1-------3--------|


  S E S +S  Q  E S +S  E.   S E S +S  E S +S  E S +Q
|-------------------------|----------------------------|
|-----------2-------------|----------------------------|
|---2-3-(3)----3----------|-------------3-(3)---0-(0)--|
|----------------0-(0)-1--|---1-0-(0)-1-------3--------|


  S E S +S  E S +S  E S +S  E.
|-------------------------------|
|-------------------------------|
|---0---------------------------|
|-----0-(0)-3-3-(3)-3-0-(0)-1---|


  S E S +S  E S +S  E S +Q     S E S +S  Q  E S +S  E.
|----------------------------|-------------------------|
|----------------------------|-----------2-------------|
|-------------3-(3)---0-(0)--|---2-3-(3)----3----------|
|---1-0-(0)-1-------3--------|----------------0-(0)-1--|


  S E S +S  E S +S  E S +Q
|-----------------------------|
|-----------------------------|
|-------------3-(3)---0-(0)---|
|---1-0-(0)-1-------3---------|


  S E S +S  Q  Q  E.   S E S +S  E S +S  E S +Q     S E S +S  Q  E S +S  E.
|--------------------|----------------------------|-------------------------|
|--------------------|----------------------------|-----------2-------------|
|---0----------0-----|-------------3-(3)---0-(0)--|---2-3-(3)----3----------|
|-----0-(0)-3-----1--|---1-0-(0)-1-------3--------|----------------0-(0)-1--|


  S E S +S  E S +S  E S +E. S   +S  E S +S  E. S S E +S  E.
|-----------------------------|-----------------------------|
|-----------------------------|-----------------------------|
|-------------3-(3)---0-(0)-0-|-(0)-0-----------------------|
|---1-0-(0)-1-------3---------|-------0-(0)-3--3-3-0-(0)-1--|


  S E S +S  E S +S  E S +S  E.
|-------------------------------|
|-------------------------------|
|---------------------0-(0)-0---|
|---1-1-(1)-1-3-(3)-------------|


  S Q  E S +S  E S +S  E.
|-------------------------|
|-------------------------|
|---0--0------------------|
|--------3-(3)-3-1-(1)-1--|


  S E S +S  E S +S  E S +S  E.   S Q  E S +S  E S +S  E.
|------------------------------|-------------------------|
|------------------------------|-------------------------|
|---------------------0-(0)-0--|---0--0------------------|
|---1-1-(1)-1-3-(3)------------|--------3-(3)-3-1-(1)-1--|


  S E S +S  E S +S  E S +S  E.   S Q  E S +S  E S +S  E.
|------------------------------|-------------------------|
|------------------------------|-------------------------|
|---------------------0-(0)-0--|---0--0------------------|
|---1-1-(1)-1-3-(3)------------|--------3-(3)-3-1-(1)-1--|


  S E S +S  E S +S  E S +S  E.
|-------------------------------|
|-------------------------------|
|---------------------0-(0)-0---|
|---1-1-(1)-1-3-(3)-------------|


  S Q  E S +S  E S +S  E.
|-------------------------|
|-------------------------|
|---0--0------------------|
|--------3-(3)-3-1-(1)-1--|


  S E S +S  E S +S  E S +S  E.   S Q  E S +S  E S +S  E.
|------------------------------|-------------------------|
|------------------------------|-------------------------|
|---------------------0-(0)-0--|---0--0------------------|
|---1-1-(1)-1-3-(3)------------|--------3-(3)-3-1-(1)-1--|


  S E S +S  E S +S  E S +S  E.   S Q  E S +S  E S +S  E.
|------------------------------|-------------------------|
|------------------------------|-------------------------|
|---------------------0-(0)-0--|---0--0------------------|
|---1-1-(1)-1-3-(3)------------|--------3-(3)-3-1-(1)-1--|


  S E S +S  E S +S  E S +S  E.
|-------------------------------|
|-------------------------------|
|---------------------0-(0)-0---|
|---1-1-(1)-1-3-(3)-------------|


  S Q  E S +S  E S +S  E.
|-------------------------|
|-------------------------|
|---0--0------------------|
|--------3-(3)-3-1-(1)-1--|


  S E S +S  E S +S  E S +S  E.   S Q  E S +S  E S +S  E.
|------------------------------|-------------------------|
|------------------------------|-------------------------|
|---------------------0-(0)-0--|---0--0------------------|
|---1-1-(1)-1-3-(3)------------|--------3-(3)-3-1-(1)-1--|


  S E S +S  E S +S  E S +S  E.   S Q  E S +S  E S +S  E.
|------------------------------|-------------------------|
|------------------------------|-------------------------|
|---------------------0-(0)-0--|---0--0------------------|
|---1-1-(1)-1-3-(3)------------|--------3-(3)-3-1-(1)-1--|


  S E S +S  E S +S  E S +S  E.
|-------------------------------|
|-------------------------------|
|---------------------0-(0)-0---|
|---1-1-(1)-1-3-(3)-------------|


  S Q  E S +S  E S +S  E.
|-------------------------|
|-------------------------|
|---0--0------------------|
|--------3-(3)-3-1-(1)-1--|


  S E S +S  E S +S  E S +S  E.   S Q  E S +S  E S +S  E.
|------------------------------|-------------------------|
|------------------------------|-------------------------|
|---------------------0-(0)-0--|---0--0------------------|
|---1-1-(1)-1-3-(3)------------|--------3-(3)-3-1-(1)-1--|


  S E S +S  E S +S  E S +S  E.   S Q  E S +S  E S +S  E.
|------------------------------|-------------------------|
|------------------------------|-------------------------|
|---------------------0-(0)-0--|---0--0------------------|
|---1-1-(1)-1-3-(3)------------|--------3-(3)-3-1-(1)-1--|


  S E S +S  E S +S  E S +S  E.
|-------------------------------|
|-------------------------------|
|---------------------0-(0)-0---|
|---1-1-(1)-1-3-(3)-------------|


  S Q  E S +S  E S +S  E.
|-------------------------|
|-------------------------|
|---0--0------------------|
|--------3-(3)-3-1-(1)-1--|


  S E S +S  E S +S  E S +S  E.   S Q  E S +S  E S +S  E.
|------------------------------|-------------------------|
|------------------------------|-------------------------|
|---------------------0-(0)-0--|---0--0------------------|
|---1-1-(1)-1-3-(3)------------|--------3-(3)-3-1-(1)-1--|


  S E S +S  E S +S  E S +S  E.   S Q  E S +S  E S +S  E.
|------------------------------|-------------------------|
|------------------------------|-------------------------|
|---------------------0-(0)-0--|---0--0------------------|
|---1-1-(1)-1-3-(3)------------|--------3-(3)-3-1-(1)-1--|


  S E S +S  E S +S  E S +S  E.
|-------------------------------|
|-------------------------------|
|---------------------0-(0)-0---|
|---1-1-(1)-1-3-(3)-------------|


  S Q  S S S S S S S S E S
|---2--2-0-----------------|
|----------2---0---------2-|
|----------------3-0---3---|
|--------------------3-----|


  +S  E S +E  S S +S  E S +S  E S   +S  E S +S  Q  Q  E.
|-----0---------------------------|-----------------------|
|-(2)-------------------0-(0)-----|-----------------------|
|---------------------2---------1-|-(1)-1-------------0---|
|-------3-(3)---3-(3)-------------|-------1-(1)-1--1------|


  S E S +S  E S +S  E S +S  E S   +S  E S +S  E S +S  E S +S  E S
|---------------------------2-2-|-(2)-2-2-(2)-2-0-(0)-------------|
|-------------------------------|---------------------2-0-(0)---2-|
|---0-0-(0)-0-0-(0)-0-0-(0)-----|-----------------------------3---|
|-------------------------------|---------------------------------|


  +S  E S +E  S S +S  E S +S  E S
|-----0----------------------------|
|-(2)-------------------0-(0)------|
|---------------------2---------1--|
|-------3-(3)---3-(3)--------------|


  +S  E S +S  Q  Q  E.   S E S S E S +H       +W           +W
|----------------------|--------------------|------------|--------|
|----------------------|--------------------|------------|--------|
|-(1)-1-------------0--|---0-------0-(0)----|-(0)--------|-(0)----|
|-------1-(1)-1--1-----|---------3----------|------------|--------|


  +W           +H.      Q
|------------|-------------*|
|------------|-------------*|
|-(0)--------|-(0)---------*|
|------------|-------------*|




--------------------------------------------------------------------------------


Duration Legend
---------------
W - whole; H - half; Q - quarter; E - 8th; S - 16th; T - 32nd; X - 64th; a - acciaccatura
+ - note tied to previous; . - note dotted; .. - note double dotted
Uncapitalized letters represent notes that are staccato (1/2 duration)
Irregular groupings are notated above the duration line
Duration letters will always appear directly above the note/fret number it represents the
duration for.  Duration letters with no fret number below them represent rests.  Multi-
bar rests are notated in the form Wxn, where n is the number of bars to rest for.  Low
melody durations appear below the staff

Tablature Legend
----------------
 h   - hammer-on
 p   - pull-off
 b   - bend
 pb  - pre-bend
 r   - bend release (if no number after the r, then release immediately)
 /\  - slide into or out of (from/to "nowhere")
 s   - legato slide
 S   - shift slide
 - natural harmonic
[n]  - artificial harmonic
n(n) - tapped harmonic
 ~   - vibrato
 tr  - trill
 T   - tap
 TP  - trem. picking
 PM  - palm muting
\n/  - tremolo bar dip; n = amount to dip
 \n  - tremolo bar down
 n/  - tremolo bar up
/n\  - tremolo bar inverted dip
 =   - hold bend; also acts as connecting device for hammers/pulls
 <> - volume swell (louder/softer)
 x   - on rhythm slash represents muted slash
 o   - on rhythm slash represents single note slash

Misc Legend
-----------
 |  - bar
||  - double bar
||o - repeat start
o|| - repeat end
*|  - double bar (ending)
 :  - bar (freetime)
 $  - Segno
 &  - Coda
Tempo markers -  = BPM(8/16=s8/s16), where s8 = swing 8ths, s16 = swing 16ths



--------------------------------------------------------------------------------

** Generated using Power Tab Editor by Brad Larsen: The Official Power Tab Web Site
Suggest correction
Creating personal tab
Creating personal tab
You can edit any tab online and save it as your Personal.

You can edit, replace or remove any tab part or add personal notes – all changes will be seen only by you.

Personal tabs can be accessed anytime from any device, even offline.
Learn more »
Give kudos to tab author, rate the tab!
1 2 3 4 5
comments
print report bad tab
guest
You may want to rate the tab now too:
select rating
Wanna post a correction for this tab? Suggest correction