Oops, an error
Loading. Please wait.

The Needle And The Spoon tab

version 4
version 4

Whole song

30,663 views 15 this week
2 commentsread comments
1 2 3 4 5
x 7
add to favorites
×
Save as Personal and add changes to this tab that will be seen only by you. Learn more ›
×
You can save this tab as Personal to edit and correct it or add notes. All changes will be seen only by you. Learn more »
launch autoscroll
font size
0
reset
how to read this tab
guitar tuner
backing track
0:00
0:00
edit
Autoscroll
slow
fast
+/-
esc
set tempo
stop
Author
Difficulty
««««  Notation As Close To The Original Artist  »»»»
**Please take a moment and rate my sheet music** 
 
Questions/Comments?      

Please feel free to send me a message here on my profile -User name- NMKeith74. 
Also be sure to look for my other Tab listings. Enjoy the tabs, have fun and play hard. 


Words and Music: 
Ronnie Van Zant and Allen Collins

Artist: Lynyrd Skynyrd

Moderately
 
 Gtr.I
 harmonics
   +   +  +      +  +  +    +   +   +   +
e|------------------------|---------------------------|
B|------------------------|-12------------------------|
G|--------7------7--------|-----12------7-------------|
D|-12--7------------7--12-|---------12----------------|  Repeat 2X
A|------------------------|---------------------------|
E|------------------------|---------------------------| 

 Gtr.II
                                              H
e|------------------------|---------------------------|
B|----3--3----------------|---------------------------|
G|----------------0-------|---------------------------|
D|-0-----------0-----0----|-3--3---0---0--------------|
A|----------3-------------|---------------0---2^3-----|
E|------------------------|---------------------------| 

                                            H 
e|------------------------|---------------------------|
B|-----3---3--------------|---------------------------|
G|------------------0-----|---------------------------|
D|-0-------------0-----0--|-3--3---0---0--------------|
A|------------3-----------|---------------0--2^3------|
E|------------------------|---------------------------| 

                                             H 
e|------------------------|---------------------------|
B|-----3---3--------------|---------------------------|
G|------------------0-----|---------------------------|
D|-0-------------0-----0--|-3--3---0---0--------------|
A|------------3-----------|---------------0--2^3------|
E|------------------------|---------------------------|

                              B
e|------------------------|---------------------------|
B|-----3---3--------------|---------------------------|
G|------------------0-----|-12^(16)12--10-------------|
D|-0-------------0-----0--|----------------12---------|
A|------------3-----------|---------------------------|
E|------------------------|---------------------------| 

         sl.        sl.                         sl.
e|-----------------------|----------------------------|
B|-----------------------|----------------------------|
G|-7----7\5---5-----5-/--|-10--10----7----------5/----|
D|-7----7\5---5-----5-/--|-10--10----7----------5/----|
A|-5----5\3---3--3--3-/--|--8---8----5------0---3/----|
E|-----------------------|----------------------------| 

          sl.                B
e|-----------------------|----------------------------|
B|-----------------------|-18^(20)-18--15---15-13-15--|
G|-7-----7\5---5-----5---|----------------------------|
D|-7-----7\5---5-----5---|----------------------------|
A|-5-----5\3---3--3--3---|----------------------------|
E|-----------------------|----------------------------| 

                                           H     H 
e|------------------------|---------------------------|
B|-----3---3--------------|---------------------------|
G|------------------0-----|---------------------------|
D|-0-------------0-----0--|-3--3---0---0--------------|
A|------------3-----------|---------------1^0---2^3---|
E|------------------------|---------------------------|


                                           H     H 
e|------------------------|---------------------------|
B|-----3---3--------------|---------------------------|
G|------------------0-----|----0----------------------|
D|-0-------------0-----0--|-3------3---0--------------|
A|------------3-----------|----------------1^0---2^3--|
E|------------------------|---------------------------|


                                           H     H 
e|------------------------|---------------------------|
B|-----3---3--------------|---------------------------|
G|------------------0-----|---------------------------|
D|-0-------------0-----0--|-3--3---0---0--------------|
A|------------3-----------|---------------1^0---2^3---|
E|------------------------|---------------------------|

                                            H     H
e|-------------------------|--------------------------|
B|-------3-----------------|--------------------------|
G|----2-----2--------0-----|----0---------------------|
D|-0--------------0-----0--|-3-----3--0---------------|
A|-------------3-----------|---------------1^0---2^3--|
E|-------------------------|--------------------------| 


e|-------------------------|--------------------------|
B|-------------------------|--------------------------|
G|-7-------------------10--|-------------------5------|
D|-7-------------------10--|-------------------5------|
A|-5--------------------8--|-------------------3------|
E|-------------------------|--------------------------| 

                                             H    H
e|-------------------------|--------------------------|
B|-------------------------|--------------------------|
G|-------------------------|--------------------------|
D|----------------------5--|--------------------------|
A|----------------------5--|----------------1^0--2^3--|
E|----------------------3--|--------------------------| 


        sl.        sl.                         sl.
e|-----------------------|----------------------------|
B|-----------------------|----------------------------|
G|-7----7\5---5-----5-\--|-10--10----7----------5/----|
D|-7----7\5---5-----5-\--|-10--10----7----------5/----|
A|-5----5\3---3--3--3-\--|--8---8----5------0---3/----|
E|-----------------------|----------------------------| 

          sl.               B     B  
e|-----------------------|----------------------------||
B|-----------------------|-6^(8)-6^(8)-3-------------*||
G|-7-----7\5---5-----5---|----------------------------||
D|-7-----7\5---5-----5---|----------------------------||
A|-5-----5\3---3--3--3---|---------------------------*||
E|-----------------------|----------------------------|| 


 harmonics
   +   +  +      +  +  +    +   +   +   +
e|------------------------|---------------------------|
B|------------------------|-12------------------------|
G|--------7------7--------|-----12------7-------------|
D|-12--7------------7--12-|---------12----------------|  
A|------------------------|---------------------------|
E|------------------------|---------------------------|



   +   +  +      +  +  +    +   +   +   +
e|------------------------|---------------------------|
B|------------------------|-12------------------------|
G|--------7------7--------|-----12------7-------------|
D|-12--7------------7--12-|---------12----------12\---|  
A|------------------------|---------------------------|
E|------------------------|---------------------------|

Solo w/ Wah Pedal

     B       B       B                   B    
e|-------------------------10-------------------10---|
B|----------------------------13----10---------------|
G|-12^(14)-12^(14)-12^(14)-------12----12^(14)-------|
D|---------------------------------------------------|
A|---------------------------------------------------|
E|---------------------------------------------------|
 
     P           P                                     
e|---------------------------------------------------|
B|-13^10----10---------------------------------------|
G|-------12----12^10---------------------------------|
D|-------------------12--12------10------10----------|
A|---------------------------12------12--------------|
E|---------------------------------------------------|
 

e|---------------------------------------------------|
B|---------------------------------------------------|
G|---------------------------------------------------|
D|-10------10--10------10--10---10--12-------10------|
A|-----12----------12-------------------12-----------|
E|---------------------------------------------------|
 
     P           P                                     
e|---------------------------------------------------|
B|---------------------------------------------------|
G|---------------------------------------------------|
D|-12^10----10------------------------10-------------|
A|-------12----10^8---------------12------12---------|
E|------------------10--10---------------------------|
 
                        B       P     P                 
e|---------------------------------------------------|
B|---------------------------------------------------|
G|-----------10----10-12^(14)-12^10-12^10------10----|
D|-10-11-12-----12-------------------------12--------|
A|---------------------------------------------------|
E|---------------------------------------------------|
 
     P                 P        P         P             
e|----------------10-------10-------10---------------|
B|-13^10-------10----13^10----13^10-----13^10--------|
G|-------10-10---------------------------------------|
D|---------------------------------------------------|
A|---------------------------------------------------|
E|---------------------------------------------------| 

         P      
e|-10-------------------------------10---------------|
B|-----13^10-13--10--13------------------13----------|
G|---------------------------------------------------|
D|---------------------------------------------------|
A|---------------------------------------------------|
E|---------------------------------------------------|

     P                           sl.           
e|---------------------------------------------------|
B|-13^10----10--------------------10---13------------|
G|-------12----10----------10--12/-------------------|
D|-----------------12--12----------------------------|
A|---------------------------------------------------|
E|---------------------------------------------------|

                               P         P                  
e|----8------8------8-8------10^8--10--10^8----------|
B|-10-----10-----10------10--------------------------|
G|---------------------------------------------------|
D|---------------------------------------------------|
A|---------------------------------------------------|
E|---------------------------------------------------|

     P           sl.         sl.       P                      
e|-10^8-----8--------10--10------10--10^8------------|
B|-------10----10\6----------/8----------------------|
G|---------------------------------------------------|
D|---------------------------------------------------|
A|---------------------------------------------------|
E|---------------------------------------------------|

     B                                                 
e|-13^(15)---13--------10-------10--10---------------|
B|------------------------10-13----------------------|
G|---------------------------------------------------|
D|---------------------------------------------------|
A|---------------------------------------------------|
E|---------------------------------------------------|

     P           B       P          sl.                   
e|------------------------------------------10-------|
B|-13^10----10----------------------/10---------10---|
G|-------12----12^(14)-12^10-10----------------------|
D|---------------------------------------------------|
A|---------------------------------------------------|
E|---------------------------------------------------|
 
     P        P        P       P        P                  
e|-13^10----13^10----13^10---13^10----13^10----------|
B|-------13-------13-------13------13-------13-------|
G|---------------------------------------------------|
D|---------------------------------------------------|
A|---------------------------------------------------|
E|---------------------------------------------------| 

                                        sl. 
e|-13----15----13-----------------------------10-----|
B|-------------------15-----------------/13----------|
G|---------------------------------------------------|
D|---------------------------------------------------|
A|---------------------------------------------------|
E|---------------------------------------------------|
 
     B        B        B        B           
e|-13^(15)--13^(15)--13^(15)-(15^)-13--10------------|
B|------------------------------------------13-------|
G|---------------------------------------------------|
D|---------------------------------------------------|
A|---------------------------------------------------|
E|---------------------------------------------------| 

     H  P                                              
e|-10^13^10-----10-13-10-----------------------------|
B|----------13---------------------------------------|
G|------------------------------------------2--5-----|
D|---------------------------------------------------|
A|---------------------------------------------------|
E|---------------------------------------------------| 


e|---------------------------------------------------|
B|-3--------3--------3--------3-----6----------------|
G|-----------------------5---------------------------|
D|---------------------------------------------------|
A|---------------------------------------------------|
E|---------------------------------------------------| 

                    H P      
e|---------------------------------------------------|
B|-------6---------3^6^3-------6----8----------------|
G|-------------------------5-------------------------|
D|---------------------------------------------------|
A|---------------------------------------------------|
E|---------------------------------------------------| 

                    H P            
e|---------------------------------------------------|
B|-------8---------6^8^6----------6------------------|
G|---------------------------7-----------------------|
D|---------------------------------------------------|
A|---------------------------------------------------|
E|---------------------------------------------------| 

              H P                    sl.                     
e|---------------------------------------------------|
B|-8-----6-------------------------------------------|
G|----7------5^7^5-------7-----5---------------------|
D|------------------7-------7-------7\3----3---------|
A|---------------------------------------------------|
E|---------------------------------------------------| 

   sl.
e|---------------------------------------------------|
B|---------------------------------------------------|
G|-/7------------------------------------------------|
D|---------------------------------------------------|
A|---------------------------------------------------|
E|---------------------------------------------------| 

           B        B       B       B                  
e|---------------------------------------------------|
B|---------------------------------------------------|
G|-------12^(14)--12^(14)-12^(14)-12^(14)------------|
D|----10---------------------------------------------|
A|---------------------------------------------------|
E|---------------------------------------------------| 

                       P      
e|---------------------------------------------------|
B|---------------------------------------------------|
G|----10---------------------------------------------|
D|-------------------12^10-12------------------------|
A|---------------------------------------------------|
E|---------------------------------------------------| 

    sl.               sl.                    
e|---------------------------------------------------|
B|---------------------------------------------------|
G|---------------------------------------------------|
D|--/10----------------------------------------------|
A|------------------12\10--8-------------------------|
E|------------------------------10-------------------| 


       sl.        sl.                         sl.
e|-----------------------|----------------------------|
B|-----------------------|----------------------------|
G|-7----7\5---5-----5-\--|-10--10----7----------5/----|
D|-7----7\5---5-----5-\--|-10--10----7----------5/----|
A|-5----5\3---3--3--3-\--|--8---8----5------0---3/----|
E|-----------------------|----------------------------| 

e|---------------------------------------------------|
B|---------------------------------------------------|
G|-10--10---------7----------------------------------|
D|-10--10---------7-------0--------------------------|
A|--8---8---------5-----------0--0--3--3-------------|
E|---------------------------------------------------| 

                                           B    
e|---------------------------------------------------|
B|----------------------------------------7^(8)------|
G|---------------7---7---5---------------------------|
D|-0-------------7---7---5---------------------------|
A|---------------5---5---3---------------------------|
E|---------------------------------------------------| 

       B     B                    B     B           
e|---------------------------------------------------|
B|-7--7^(8)-7^(8)-------------7--7^(8)-7^(8)---------|
G|---------------------------------------------------|
D|---------------------------------------------------|
A|---------------------------------------------------|
E|---------------------------------------------------| 

               B                                         
e|---------------------------------------------------|
B|-----7---8--8^(10)-----------------3---------------|
G|---------------------------------------5-----------|
D|---------------------------------------------------|
A|---------------------------------------------------|
E|---------------------------------------------------| 

               H P           B                          
e|---------------------------------------------------|
B|-3----------3^6^3------3--6^(8)----------6---------|
G|-------------------5-------------------------------|
D|---------------------------------------------------|
A|---------------------------------------------------|
E|---------------------------------------------------| 

    H P     H P                     sl.                      
e|----------------------------------------10---------|
B|-3^6^3---3^6^3-------------------3/7--------10-----|
G|-------5-------------------------------------------|
D|---------------------------------------------------|
A|---------------------------------------------------|
E|---------------------------------------------------| 

e|-9-10----9-10----9-10----9-10----9-10----9---------|
B|------10------10------10------10------10-----------|
G|---------------------------------------------------|
D|---------------------------------------------------|
A|---------------------------------------------------|
E|---------------------------------------------------| 

                          B           B       
e|-10----9--10--13--10-----------------------10------|
B|----10----------------13^(15)-----13^(15)------10--|
G|---------------------------------------------------|
D|---------------------------------------------------|
A|---------------------------------------------------|
E|---------------------------------------------------| 
                                                                                 
 P        P        P        P 
e|-13^10----13^10----13^10----13^10------------------|
B|-------10-------10-------10--------10--------------|
G|---------------------------------------------------|
D|---------------------------------------------------|
A|---------------------------------------------------|
E|---------------------------------------------------| 

                           sl.
e|-13-15-13----------------------13--14--15----------|
B|----------15-----------15/15-----------------------|
G|---------------------------------------------------|
D|---------------------------------------------------|
A|---------------------------------------------------|
E|---------------------------------------------------| 

     B       B       B         B   P                       
e|-15^(17)-15^(17)-15^(17)--(17^)15^13-15-15-15-13---|
B|-------------------------------------------------15|
G|---------------------------------------------------|
D|---------------------------------------------------|
A|---------------------------------------------------|
E|---------------------------------------------------| 

 Fade================================================
           H                sl. sl.                          
e|-15----13^14---------------------------------------|
B|----15--------15--15-----15\---/10----13-----------|
G|---------------------------------------------------|
D|---------------------------------------------------|
A|---------------------------------------------------|
E|---------------------------------------------------| 

 ====================================================
     B         B                  sl.                       
e|---------------------------------------------------|
B|-15^(18)--(18^)15--15---13-------------------------|
G|------------------------------14\12----------------|
D|---------------------------------------------------|
A|---------------------------------------------------|
E|---------------------------------------------------| 

 ====================================================
     H             H  P                                   
e|---------------------------------------------------|
B|---------------------------------------------------|
G|-10^12-10------10^12^10----------------------------|
D|-----------12-------------12-----------------------|
A|---------------------------------------------------|
E|---------------------------------------------------| 


Hope you enjoy



************************************


My Playing Guide
_________________________________
                                 |
/ sl. (slide up)                 |
\ sl. (slide down)               | 
H, h  (hammer-on)                | 
P, p  (pull-off)                 | 
B, b (bend) ¼ ½ or 1 step        |
V~  (vibrato)                    | 
+  (harmonic)                    |
PM,  (Palm mute)                 |
x (pick scrape)                  |
_________________________________|


************************************

            
            
Suggest correction
Creating personal tab
Creating personal tab
You can edit any tab online and save it as your Personal.

You can edit, replace or remove any tab part or add personal notes – all changes will be seen only by you.

Personal tabs can be accessed anytime from any device, even offline.
Learn more »
comments
print report bad tab
2 comments total.
+2 reply
68lpjr 10 Nov 27, 2010 03:50 PM

nice, nice, very nice. it made me cry it is so good. thank you.

0 reply
NMKeith74 154 Mar 23, 2013 03:49 PM

Hey thanks man

guest
You may want to rate the tab now too:
select rating
Wanna post a correction for this tab? Suggest correction