Oops, an error
Loading. Please wait.

Inhala Tab

version 1
version 1

Whole song

30 views 1 this week
no commentswrite comment
1 2 3 4 5
3 more votes to show rating
add to favorites
launch autoscroll
font size
0
reset
how to read this tab
guitar tuner
Autoscroll
slow
fast
+/-
esc
set tempo
stop
Help us to improve Ultimate-Guitar.com Take our survey!
×
Esta es la misma transcripcion que la de alfredo solo que
corregida de algunos errores de letra nadamas para que al momento
de cantarla no vayan a fallar.


D E A A
D E A A Ab Gb E


e---------------0-----------------------------0-------------
B---------7--------7-----7--------------7--------7-----7----
G------6-----6--------6--------------6-----6--------6-------
D---0-------------------------------------------------------
A--------------------------------7--------------------------
E-----------------------------------------------------------


e---------------0----------------------------0--------------
B---------0--------0-----0-------------0--------0-----0-----
G-----------------------------------------------------------
D------7-----7--------7-------------7-----7--------7--------
A---0----------------------------0--------------------------
E-----------------------------------------------------------


D E D E


D                      E
tal vez e estado algo mal
                     A
pero el tiempo no ayudo
                     A                         D
tal vez pudiste ser tu quien inhala mi sueños hoy
                   E
hoy propones otra vez tronar la burbuja
   A                 A
y yo no veo ni mi nariz mucho menos en donde estoy

D                        E
verte quema abrazarte mas me aterra puedo perder
A
pon el tiempo alrevez
A
por el tiempo alrevez

D                        E
verte quema abrazarte mas me aterra puedo perder
A
pon el tiempo alrevez
A
por el tiempo alrevez

D E A

D             E               A               A
el conjelador no fuinciona ya no puede enfriar
             D                         E
tanta anciedad creo que tu estas muy bien
                A
yo quiero escapar
             A
no se donde ir
Este es mi lugar

D                      E
sentir cada vez ahoga mas
                      A
mentir se vuelve realidad
               A
el aire pesa y ya no tengo fuerza

D                        E
verte quema abrazarte mas me aterra puedo perder
A
por el tiempo alrevez
A
pon el tiempo alrevez

D                        E
verte quema abrazarte mas me aterra puedo perder
A
por el tiempo alrevez
A
pon el tiempo alrevez

D E A A x2


e-------------------------------------------------
B-------------------------------------------------
G-------------------------------------------------
D------7--9--7-----7--9--7-----7--9--7--9--7-7----
A---7-----------7-----------7---------------------
E-------------------------------------------------


e-------------------------------------------------
B-------------------------------------------------
G-------------------------------------------------
D------7--9--7-----7--9--7-----7--9--7--9--9--11--
A---7-----------7-----------7---------------------
E-------------------------------------------------


e---------------------------------------------
B---------------------------------------------
G---------------------------------------------
D------7--9--7-----7--9--7-----7--9--7--9--9--
A---7-----------7-----------7-----------------
E---------------------------------------------

e----------------------------------------
B----------------------------------------
G----------------------------------------
D---11--9--7--9--7--11--9--7--9--7--7----
A----------------------------------------
E----------------------------------------X2
D                        E
verte quema abrazarte mas me aterra puedo perder
A
por el tiempo alrevez
A
pon el tiempo alrevez

D                        E
verte quema abrazarte masme aterra puedo perder
A
por el tiempo alrevez
A
pon el tiempo alrevez

D E A A x2
Suggest correction
Give kudos to tab author, rate the tab!
1 2 3 4 5
comments
print report bad tab
guest
You may want to rate the tab now too:
select rating
Wanna post a correction for this tab? Suggest correction