Oops, an error
Loading. Please wait.

Inhala Tab

version 2
version 2

Whole song

15 views 1 this week
no commentswrite comment
1 2 3 4 5
3 more votes to show rating
add to favorites
launch autoscroll
font size
0
reset
how to read this tab
guitar tuner
×
Best way to learn
"Inhala"
Autoscroll
slow
fast
+/-
esc
set tempo
stop
Bien aca esta el primer sencillo de esta gran banda, les dejo
marcados los tiempo para que se guien y escuchenla mucho para
que agarren el ritmo de las guitarras

00:00

Guitarra 1
e|---------0----------------0----------------0----------------0--------|
B|-----7-----7---7------------7---7------0-----0---0------0-----0---0--|
G|---6---6-----6--------7-------6------2---2-----2------2---2-----0----|
D|-0------------------6---6--------------------------------------------| x2
A|------------------7----------------0----------------0----------------|
E|---------------------------------------------------------------------|

e|---------0--------|
B|-----0-----0---0--|
G|-2-2---2-----0----|
D|------------------|
A|------------------|
E|------------------|

00:22

Guitarra 1
e|------------------------------------|
B|------------------------------------|
G|--777-77-77-77-777-999-99-99-99-999-|
D|--777-77-77-77-777-999-99-99-99-999-| x2
A|--555-55-55-55-555-777-77-77-77-777-|
E|------------------------------------|
PM  ..  .  .  .      ..  .  .  .

La guitarra 2 hace esto cada poco antes
de que cambien los acordes con poco volumen

e|-------------|
B|-------------|
D|-9-9-9-7-6-7-|
G|-------------|
E|-------------|

00:33

Se oye una tercera guitarra que toca todos los acordes
muteados hasta el coro, cuando canta "mucho menos donde
estoy" usa distor pero antes esta muteada

Guitarra 1

    Talvez he estado algo mal pero el tiempo no ayudo
e|---------------------------------------------------|
B|---------------------------------------------------|
G|--777-777-77--777-777-77--999--999-99--999-999-99--|
D|--777-777-77--777-777-77--999--999-99--999-999-99--|
A|--555-555-55--555-555-55--777--777-77--777-777-77--|
E|---------------------------------------------------|
PM  ..  ..  .   ..  ..      ..   ..  .   ..  ..  .

   Talvez pudiste ser tu quien inhala mis sueños hoy
e|---------------------------------------------------|
B|---------------------------------------------------|
G|---------------------------------------------------|
D|---777-777-77--777-777-77--777-777-77--777-777-77--|
A|---777-777-77--777-777-77--777-777-77--777-777-77--|
E|---555-555-55--555-555-55--555-555-55--555-555-55--|
PM   ..  ..  .   ..  ..  .   ..  ..  .   ..  ..  .

00:44
Guitarra 2
e|----------------------------------|
B|----------------------------------|
G|--9--9----11-9----9--9----11-9----|
D|-------11------11------11------11-| x4
A|----------------------------------|
E|----------------------------------|

Tambien se puede hacer asi

e|-0--0------0---0--0-----0---------|
B|--------7-------------7-----7-----|
G|-----6-------6------6-----6---6---|
D|----------------------------------| x4
A|----------------------------------|
E|----------------------------------|

     Hoy propones otra vez tronar la burbuja
e|---------------------------------------------|
B|---------------------------------------------|
G|---7777-7777-7777-7777-9999-9999-9999-9999---|
D|---7777-7777-7777-7777-9999-9999-9999-9999---|
A|---5555-5555-5555-5555-7777-7777-7777-7777---|
E|---------------------------------------------|
PM   ...  ...  ...  ...  ...  ...  ...  ...

 Y yo no veo ni mi nariz mucho menos donde estoy
e|---------------------------------------------|
B|---------------------------------------------|
G|---------------------------------------------|
D|--7777-7777-7777-7777--7777-7777-77777777777-|
A|--7777-7777-7777-7777--7777-7777-77777777777-|
E|--5555-5555-5555-5555--5555-5555-55555555555-|
PM  ...  ...  ...  ...   ...  ...

00:54

 Verte quema abrazarte mas me aterra puede perder
e|----------------------------------------------|
B|----------------------------------------------|
G|-77777777-77777777-777/99999999-9999999-999---|
D|-77777777-77777777-777/99999999-9999999-999---|
A|-55555555-55555555-555/77777777-7777777-777---|
E|----------------------------------------------|

Guitarra 2
e|-----------------------------------------------|
B|-----------------------------------------------|
G|-16-13-11-9-16-13-11-13-16-13-11-9-16-13-11-13-|
D|-16-13-11-9-16-13-11-13-16-13-11-9-16-13-11-13-|x2
A|-14-11-9--7-14-11-9--11-14-11-9--7-14-11-9--11-|
E|-----------------------------------------------|

 Pon el tiempo al reves pon el tiempo al re (verte)
e|-----------------------------------------------|
B|-----------------------------------------------|
G|-----------------------------------------------|
D|-77777777-77777777-77777777-77777777-77777777--|
A|-77777777-77777777-77777777-77777777-77777777--|
E|-55555555-55555555-55555555-55555555-55555555--|

Guitarra 2
e|-----------------------------------------------|
B|-----------------------------------------------|
G|-16-13-11-9-16-13-11-13-16-13-11-9-16-13-11-13-|
D|-16-13-11-9-16-13-11-13-16-13-11-9-16-13-11-13-|x2
A|-14-11-9--7-14-11-9--11-14-11-9--7-14-11-9--11-|
E|-----------------------------------------------|

 Verte quema abrazarte mas me aterra puede perder
e|-----------------------------------------------|
B|-----------------------------------------------|
G|-77777777-77777777-777/99999999-99999999-999---|
D|-77777777-77777777-777/99999999-99999999-999---|
A|-55555555-55555555-555/77777777-77777777-777---|
E|-----------------------------------------------|

Guitarra 2
e|-----------------------------------------------|
B|-----------------------------------------------|
G|-16-13-11-9-16-13-11-13-16-13-11-9-16-13-11-13-|
D|-16-13-11-9-16-13-11-13-16-13-11-9-16-13-11-13-|x2
A|-14-11-9--7-14-11-9--11-14-11-9--7-14-11-9--11-|
E|-----------------------------------------------|

 Pon el tiempo al reves pon el tiempo al reves
e|-----------------------------------------------|
B|-----------------------------------------------|
G|-----------------------------------------------|
D|-77777777-77777777-77777777-77777777-77777777--|
A|-77777777-77777777-77777777-77777777-77777777--|
E|-55555555-55555555-55555555-55555555-55555555--|

Guitarra 2
e|-----------------------------------------------|
B|-----------------------------------------------|
G|-16-13-11-9-16-13-11-13-16-13-11-9-16-13-11-13-|
D|-16-13-11-9-16-13-11-13-16-13-11-9-16-13-11-13-|x2
A|-14-11-9--7-14-11-9--11-14-11-9--7-14-11-9--11-|
E|-----------------------------------------------|

01:14

e|-----------------------------------|
B|-----------------------------------|
G|--777777777777777-999999999999999--|
D|--777777777777777-999999999999999--|
A|--555555555555555-777777777777777--|
E|-----------------------------------|
PM  .. .  . ..      .. .  . ..

e|-----------------------------------|
B|-----------------------------------|
G|--77-77-77-77-777-99-99-99-99-999--|
D|--77-77-77-77-777-99-99-99-99-999--|
A|--55-55-55-55-555-77-77-77-77-777--|
E|-----------------------------------|
PM  .. .  .. .  ..  .. .  .. .  ..

01:26

Guitarra 2
e|----0--0-----0-------0--0------0---|
B|-----------7-----------------7-----|
G|---------6-----------------6-------|
D|-----------------------------------| x4
A|-----------------------------------|
E|-----------------------------------|

Guitarra1

  El congelador      no funciona ya    no puede enfriar tanta ansiedad
e|------------------------------------------------------------|
B|------------------------------------------------------------|
G|-7777--------------9999-------------------------------------|
D|-7777--------------9999--------------7777-------------7777--|
A|-5555--------------7777--------------7777-------------7777--|
E|-------------------------------------5555-------------5555--|
PM ...               ...               ...              ...

Creo tu estas muy bien yo quiero escapar no se a donde ir este es mi lugar

e|------------------------------------------------------------|
B|------------------------------------------------------------|
G|-7777---------------9999------------------------------------|
D|-7777---------------9999---------------7777-----------7777--|
A|-5555---------------7777---------------7777-----------7777--|
E|---------------------------------------5555-----------5555--|
PM ...                ...                ...            ...

01:47

   Sentir cada vez ahoga más, mentir se vuelve realidad
e|--------------------------------------------------|
B|--------------------------------------------------|
G|------7----7----7-----77-------7----7----7----77--|
D|------7----7----7-----77-------7----7----7----77--|
A|------5----5----5-----55-------5----5----5----55--|
E|--------------------------------------------------|

Guitarra 2
e|------------------|  |------------------|  |------------------|
B|-10--10--10--10---|  |-10--10--10--10---|  |-10--10--10--10---|
G|------------------|x2|------------------|x2|------------------|x4
D|---12--12--12--12-|  |---14--14--14--14-|  |---7---7---7---7--|
A|------------------|  |------------------|  |------------------|
E|------------------|  |------------------|  |------------------|
PM . . . . . . . .       . . . . . . . .       . . . . . . . .

      El aire pesa y yo ya no tengo fuerzas
e|--------------------------------------------------|
B|--------------------------------------------------|
G|------7----7----7----77-77777777-77777777---------|
D|------7----7----7----55-77777777-77777777---------|
A|------5----5----5----55-55555555-55555555---------|
E|--------------------------------------------------|

01:58

 Verte quema abrazarte mas me aterra puede perder
e|-----------------------------------------------|
B|-----------------------------------------------|
G|-77777777-77777777-777/99999999-99999999-999---|
D|-77777777-77777777-777/99999999-99999999-999---|
A|-55555555-55555555-555/77777777-77777777-777---|
E|-----------------------------------------------|

Guitarra 2
e|-----------------------------------------------|
B|-----------------------------------------------|
G|-16-13-11-9-16-13-11-13-16-13-11-9-16-13-11-13-|
D|-16-13-11-9-16-13-11-13-16-13-11-9-16-13-11-13-|x2
A|-14-11-9--7-14-11-9--11-14-11-9--7-14-11-9--11-|
E|-----------------------------------------------|

 Pon el tiempo al reves pon el tiempo al re (verte)
e|-----------------------------------------------|
B|-----------------------------------------------|
G|-----------------------------------------------|
D|-77777777-77777777-77777777-77777777-77777777--|
A|-77777777-77777777-77777777-77777777-77777777--|
E|-55555555-55555555-55555555-55555555-55555555--|

Guitarra 2
e|-----------------------------------------------|
B|-----------------------------------------------|
G|-16-13-11-9-16-13-11-13-16-13-11-9-16-13-11-13-|
D|-16-13-11-9-16-13-11-13-16-13-11-9-16-13-11-13-|x2
A|-14-11-9--7-14-11-9--11-14-11-9--7-14-11-9--11-|
E|-----------------------------------------------|

 Verte quema abrazarte mas me aterra puede perder
e|-----------------------------------------------|
B|-----------------------------------------------|
G|-77777777-77777777-777/99999999-99999999-999---|
D|-77777777-77777777-777/99999999-99999999-999---|
A|-55555555-55555555-555/77777777-77777777-777---|
E|-----------------------------------------------|

Guitarra 2
e|-----------------------------------------------|
B|-----------------------------------------------|
G|-16-13-11-9-16-13-11-13-16-13-11-9-16-13-11-13-|
D|-16-13-11-9-16-13-11-13-16-13-11-9-16-13-11-13-|x2
A|-14-11-9--7-14-11-9--11-14-11-9--7-14-11-9--11-|
E|-----------------------------------------------|

 Pon el tiempo al reves pon el tiempo al reves
e|-----------------------------------------------|
B|-----------------------------------------------|
G|-----------------------------------------------|
D|-77777777-77777777-77777777-77777777-77777777--|
A|-77777777-77777777-77777777-77777777-77777777--|
E|-55555555-55555555-55555555-55555555-55555577--|

Guitarra 2
e|-----------------------------------------------|
B|-----------------------------------------------|
G|-16-13-11-9-16-13-11-13-16-13-11-9-16-13-11-13-|
D|-16-13-11-9-16-13-11-13-16-13-11-9-16-13-11-13-|x2
A|-14-11-9--7-14-11-9--11-14-11-9--7-14-11-9--11-|
E|-----------------------------------------------|

02:19

e|--------------------------------------------|
B|--------------------------------------------|
G|----6/77--999999999999--6/77--999999999999--|
D|----6/77--999999999999--6/77--999999999999--|
A|----4/55--777777777777--4/55--777777779999--|
E|--------------------------------------------|

e|-------------------------------------------------|
B|-------------------------------------------------|
G|-14-14-14-14-14-13-13-13-13-11-11-11-11-9-11-9-6-|
D|-14-14-14-14-14-13-13-13-13-11-11-11-11-9-11-9-6-|
A|-12-12-12-12-12-12-11-11-11-11-9--9--9--7-9--7-4-|
E|-------------------------------------------------|

Todo eso dos veces, es la guitarra de fondo

02:41

 Verte quema abrazarte mas me aterra puede perder

e|------------------------------------------------|
B|------------------------------------------------|
G|-----77--77------77--77-----99--99------99--99--|
D|-----77--77------77--77-----99--99------99--99--|
A|-----55--55------55--55-----77--77------77--77--|
E|------------------------------------------------|
PM     ..  .       ..  .      ..  .       ..  .

 Pon el tiempo al reves pon el tiempo al re (verte)

e|------------------------------------------------|
B|------------------------------------------------|
G|------------------------------------------------|
D|-----77--77------77--77-----77--77------77--77--|
A|-----77--77------77--77-----77--77------77--77--|
E|-----55--55------55--55-----55--55------55--55--|
PM     ..  .       ..  .      ..  .       ..  .

 Verte quema abrazarte mas me aterra puede perder

e|---------------------------------------------|
B|---------------------------------------------|
G|-77777777-77777777-777/99999999-99999999-999-|
D|-77777777-77777777-777/99999999-99999999-999-|
A|-55555555-55555555-555/77777777-77777777-777-|
E|---------------------------------------------|

 Pon el tiempo al reves pon el tiempo al reves
e|---------------------------------------------|
B|---------------------------------------------|
G|---------------------------------------------|
D|-77777777-77777777-77777777-77777777-777777--|
A|-77777777-77777777-77777777-77777777-777777--|
E|-55555555-55555555-55555555-55555555-555555--|

Guitarra 2
e|-----------------------------------------------|
B|-----------------------------------------------|
G|-16-13-11-9-16-13-11-13-16-13-11-9-16-13-11-13-|
D|-16-13-11-9-16-13-11-13-16-13-11-9-16-13-11-13-|x2
A|-14-11-9--7-14-11-9--11-14-11-9--7-14-11-9--11-|
E|-----------------------------------------------|


Y eso es casi todo, solo me falta el final pero bueno creo
que con esto se pueden entretener un rato
Suggest correction
Give kudos to tab author, rate the tab!
1 2 3 4 5
comments
print report bad tab
guest
You may want to rate the tab now too:
select rating
Wanna post a correction for this tab? Suggest correction