Oops, an error
Loading. Please wait.

Tal Vez Escupa, Tal Vez No Bass

by Lyon fi
14 views 1 this week
no commentswrite comment
1 2 3 4 5
3 more votes to show rating
add to favorites
launch autoscroll
font size
0
reset
guitar tuner
×
Best way to learn
"Tal Vez Escupa, Tal Vez No"
Autoscroll
slow
fast
+/-
esc
set tempo
stop
   Intro:
G|:------------------------------------------:|
D|:--------------5---------------5-------5---:|
A|:------------------------------------------:|
E|:--3-3-3-3-3-------3-3-3-3-3-------3-------:|

G|:--------------9---------------9-------9---:|
D|:------------------------------------------:|
A|:--7-7-7-7-7-------7-7-7-7-7-------7-------:|
E|:------------------------------------------:|

G|:--------------5---------------5-------5---:|
D|:------------------------------------------:|
A|:--3-3-3-3-3-------3-3-3-3-3-------3-------:|
E|:------------------------------------------:|

G|:--------------4---------------------------:|
D|:------------------------------------------:|
A|:--2-2-2-2-2-------2-2--2-3-2--------------:|
E|:-------------------------------3----------:|

   Había encontrado a alguien mejor,
G|:------------------------------------------:|
D|:--------------5---------------5-------5---:|
A|:------------------------------------------:|
E|:--3-3-3-3-3-------3-3-3-3-3-------3-------:|

   Alguien que se acercaba a le sol,
G|:--------------9---------------9-------9---:|
D|:------------------------------------------:|
A|:--7-7-7-7-7-------7-7-7-7-7-------7-------:|
E|:------------------------------------------:|

   Alguien con quien podía jugar,
G|:--------------5---------------5-------5---:|
D|:------------------------------------------:|
A|:--3-3-3-3-3-------3-3-3-3-3-------3-------:|
E|:------------------------------------------:|

   A que era grande nuestro amor,
G|:--------------4---------------------------:|
D|:------------------------------------------:|
A|:--2-2-2-2-2-------2-2--2-3-2--------------:|
E|:-------------------------------3----------:|

   Tal vez supuse que era mejor mentir,
G|:-----------------------------------:|
D|:-----------------------------------:|
A|:-----------------------------------:|
E|:--3-3-3-3-3-3-3-3-3-3-3-3-3-3-3-3--:|

   Y no hacer caso a lo que pasaba aquí,
G|:-----------------------------------:|
D|:-----------------------------------:|
A|:--7-7-7-7-7-7-7-7-7-7-7-7-7-7-7-7--:|
E|:-----------------------------------:|

   Decir te creo más no pensar así,
G|:-----------------------------------:|
D|:-----------------------------------:|
A|:--3-3-3-3-3-3-3-3-3-3-3-3-3-3-3-3--:|
E|:-----------------------------------:|

   Seguir muriendo en mi lugar feliz,
G|:----------------------------------------:|
D|:----------------------------------------:|
A|:--2-2-2-2-2-2-2-2-3-3-3-3-3-3-2-3--3-3--:|
E|:----------------------------------------:|

   Y esta vez espero,
G|:-----------------------------------:|
D|:-----------------------------------:|
A|:--3--3--5--5--5--3-----------------:|
E|:--------------------5--3-----------:|

   Que se acabe el juego es tu turno de llorar ya,
G|:-------------------------------------------:|
D|:-------------------------------------------:|
A|:----------------------------------3--3-3---:|
E|:--3-3-3-3-3-3-3-3-3-3-3-3-3-3-3-5----------:|

   He visto lo que quiero,
G|:-----------------------------------:|
D|:-----------------------------------:|
A|:--3--3--5--5--5--3-----------------:|
E|:--------------------5--3-----------:|

   Yo escupo primero es mi hora de saltar,
G|:-------------------------------------------:|
D|:-------------------------------------------:|
A|:--------------------------------3----------:|
E|:--3-3-3-3-3-3-3-3-3-3-3-3-3-3-5------------:|

   Tronar el globo miedo,
G|:-------------------------------------------:|
D|:-------------------------------------------:|
A|:--3-3-3-3-3-3-3-3--5-5-5-5-5-5-5-5---------:|
E|:-------------------------------------------:|

   Y ser lo más sincero que aunque duela lo podre soportar,
G|:-------------------------------------------------:|
D|:-------------------------------------------------:|
A|:--10-10-10-10-10-10-10-10-10-10-10-10-10-10-9-7--:|
E|:-------------------------------------------------:|

   Y así poder despertar,
G|:-----------------------------------:|
D|:-----------------------------------:|
A|:--3-3-3-3-3-3-3-3--5---------------:|
E|:-----------------------------------:|

   Interludio
G|:------------------------------------------:|
D|:--------------5---------------5-------5---:|
A|:------------------------------------------:|
E|:--3-3-3-3-3-------3-3-3-3-3-------3-------:|

G|:--------------9---------------9-------9---:|
D|:------------------------------------------:|
A|:--7-7-7-7-7-------7-7-7-7-7-------7-------:|
E|:------------------------------------------:|

G|:--------------5---------------5-------5---:|
D|:------------------------------------------:|
A|:--3-3-3-3-3-------3-3-3-3-3-------3-------:|
E|:------------------------------------------:|

G|:--------------4---------------------------:|
D|:------------------------------------------:|
A|:--2-2-2-2-2-------2-2--2-3-2--------------:|
E|:-------------------------------3----------:|

   Dejar el aire, dormir en mi piel,
G|:----------------------------:|
D|:---------5------------------:|
A|:-------------5--5-----------:|
E|:----3-----------------------:|

   Probar de él si todo sale bien,
G|:----------------------------:|
D|:----------4-----------------:|
A|:--------------4--4----------:|
E|:--2--2----------------------:|

   Tantos sabores ignore, Tantas mentiras acepte,
G|:----------------------------:|
D|:----------2---0-0-----------:|
A|:------------------2-3----5--:|
E|:--0--0----------------------:|

   Dejar el aire, dormir en mi piel,
G|:------------------------------:|
D|:------------------------------:|
A|:------------------------------:|
E|:--3-3-3-3-3--3--3-3--3-5-3-5--:|

   Probar de él si todo sale bien,
G|:------------------------------:|
D|:------------------------------:|
A|:------------------------------:|
E|:--2-2-2-2-2--2--2-2--2-3-2-3--:|

   Tantos sabores ignore,
G|:------------------------------:|
D|:------------------------------:|
A|:------------------------------:|
E|:--0-0-0-0-0--0--0-0--0-2-0-2--:|

   Tantas mentiras acepte, y esta vez espero!
G|:------------------------------:|
D|:------------------------------:|
A|:--3-3-3-3--5-5-5-5-5-5--3-3-3-:|
E|:------------------------------:|

   Que se acabe el juego es tu turno de llorar ya,
G|:-------------------------------------------:|
D|:-------------------------------------------:|
A|:----------------------------------3--3-3---:|
E|:--3-3-3-3-3-3-3-3-3-3-3-3-3-3-3-5----------:|

   He visto lo que quiero,
G|:-----------------------------------:|
D|:-----------------------------------:|
A|:--3--3--5--5--5--3-----------------:|
E|:--------------------5--3-----------:|

   Yo escupo primero es mi hora de saltar,
G|:-------------------------------------------:|
D|:-------------------------------------------:|
A|:--------------------------------3----------:|
E|:--3-3-3-3-3-3-3-3-3-3-3-3-3-3-5------------:|

   Tronar el globo miedo,
G|:-------------------------------------------:|
D|:-------------------------------------------:|
A|:--3-3-3-3-3-3-3-3--5-5-5-5-5-5-5-5---------:|
E|:-------------------------------------------:|

   Y ser lo más sincero que aunque duela lo podre soportar,
G|:-------------------------------------------------:|
D|:-------------------------------------------------:|
A|:--10-10-10-10-10-10-10-10-10-10-10-10-10-10-9-7--:|
E|:-------------------------------------------------:|

   Y así poder despertar,
G|:-------------------------------------------:|
D|:-------------------------------------------:|
A|:--3-3-3-3-3-3-3-3--5-5-5-5-5-5-5-5--3-3-3--:|
E|:-------------------------------------------:|

   Y esta vez espero,
G|:-----------------------------------:|
D|:-----------------------------------:|
A|:--3--3--5--5--5--3-----------------:|
E|:--------------------5--3-----------:|

   Que se acabe el juego es tu turno de llorar ya,
G|:-------------------------------------------:|
D|:-------------------------------------------:|
A|:----------------------------------3--3-3---:|
E|:--3-3-3-3-3-3-3-3-3-3-3-3-3-3-3-5----------:|

   He visto lo que quiero,
G|:-----------------------------------:|
D|:-----------------------------------:|
A|:--3--3--5--5--5--3-----------------:|
E|:--------------------5--3-----------:|

   Yo escupo primero es mi hora de saltar,
G|:-------------------------------------------:|
D|:-------------------------------------------:|
A|:--------------------------------3----------:|
E|:--3-3-3-3-3-3-3-3-3-3-3-3-3-3-5------------:|

   Tronar el globo miedo,
G|:-------------------------------------------:|
D|:-------------------------------------------:|
A|:--3-3-3-3-3-3-3-3--5-5-5-5-5-5-5-5---------:|
E|:-------------------------------------------:|

   Y ser lo más sincero que aunque duela lo podre soportar,
G|:-------------------------------------------------:|
D|:-------------------------------------------------:|
A|:--10-10-10-10-10-10-10-10-10-10-10-10-10-10-9-7--:|
E|:-------------------------------------------------:|

   Y así poder despertar,
G|:-------------------------------------------:|
D|:-------------------------------------------:|
A|:--3-3-3-3-3-3-3-3--5-5-5-5-5-5-5-5--3-3-3--:|
E|:-------------------------------------------:|

G|:-----------------------------------:|
D|:-----------------------------------:|
A|:--3--3--5--5--5--3-----------------:|
E|:--------------------5--3-----------:|

G|:-------------------------------------------:|
D|:-------------------------------------------:|
A|:----------------------------------3--3-3---:|
E|:--3-3-3-3-3-3-3-3-3-3-3-3-3-3-3-5----------:|

G|:-----------------------------------:|
D|:-----------------------------------:|
A|:--3--3--5--5--5--3-----------------:|
E|:--------------------5--3-----------:|

G|:-------------------------------------------:|
D|:-------------------------------------------:|
A|:--------------------------------3----------:|
E|:--3-3-3-3-3-3-3-3-3-3-3-3-3-3-5------------:|

G|:-------------------------------------------:|
D|:-------------------------------------------:|
A|:--3-3-3-3-3-3-3-3--5-5-5-5-5-5-5-5---------:|
E|:-------------------------------------------:|

G|:-------------------------------------------:|
D|:-------------------------------------------:|
A|:--10-10-10-9-9-9-7-7-7-5-5-5-3-3-3-3-------:|
E|:-------------------------------------------:|

  Y así poder despertar!
G|:-------------------:|
D|:-------------------:|
A|:--3-3-2------------:|
E|:----------------3--:|
Suggest correction
Give kudos to tab author, rate the tab!
1 2 3 4 5
comments
print report bad tab
guest
You may want to rate the tab now too:
select rating
Wanna post a correction for this tab? Suggest correction