Oops, an error
Loading. Please wait.

The Singing Nightingale Tab

801 views 3 this week
no commentswrite comment
1 2 3 4 5
please rate
add to favorites
launch autoscroll
font size
0
reset
how to read this tab
guitar tuner
Autoscroll
slow
fast
+/-
esc
set tempo
stop
Help us to improve Ultimate-Guitar.com Take our survey!
×
Author
----------------------------------------------------------------------------
		        The Singing Nightingale - Lyriel
                             http://www.lyriel.net/
----------------------------------------------------------------------------
Tabbed by: Junkie81
Email: bak.steen@hotmail.com

Tuning: EADGBe

Chords:

Em     022000
C      x32010	
Am     x02210 
Bm     x24432 
D      x00232
G      320033
Dsus2  xx0230	

   Em     		                   C			  
e|------------0------------------------0----------------------|
B|----------0---0-----0--------------1---1-----1--------------|
G|--------0-------0---0------------0-------0---0--------------|
D|------2-----------2---2--------2-----------2---2------------|
A|----2-----------------------3-------------------------------|
E|-0----------------------------------------------------------|

    Am			                    Bm	         C      D
e|----------0-------------------------------------------------|
B|--------1---1-----1--------------------1------3-------------|
G|------2-------2---2--------------------0------2-------------|
D|----2-----------2---2---------4--------2----0---------------|
A|--0-------------------------2---2----3----------------------|
E|--------------------------2---------------------------------| 2x

Strumming:
 
Em, D, C, D  2x

Verse:

   Em     		                   C			  
e|------------0------------------------0----------------------|
B|----------0---0-----0--------------1---1-----1--------------|
G|--------0-------0---0------------0-------0---0--------------|
D|------2-----------2---2--------2-----------2---2------------|
A|----2-----------------------3-------------------------------|
E|-0----------------------------------------------------------|

   D		   	                 Em	     	       C      D     
e|---------2------------------------0-------------------------|
B|-------3---3-----3--------------0---0-----1------3----------|
G|-----2-------2---2------------0-----------0------2----------|
D|---0-----------0---0--------2-------------2----0------------|
A|-0------------------------2-------------3-------------------|
E|------------------------0-----------------------------------|

   Em     		                   C			  
e|------------0------------------------0----------------------|
B|----------0---0-----0--------------1---1-----1--------------|
G|--------0-------0---0------------0-------0---0--------------|
D|------2-----------2---2--------2-----------2---2------------|
A|----2-----------------------3-------------------------------|
E|-0----------------------------------------------------------|


   D			                     Em		            
e|---------2------------------------0-------------------------|
B|-------3---3-----3--------------0---0-----------------------|
G|-----2-------3---2------------0-------0---------------------|
D|---0-----------0---0--------2-----------2-------------------|
A|-0------------------------2---------------2-----------------|
E|------------------------0-----------------------------------|



    C		            D	           C	           Dsus2
e|----------0-------------2------------0------------0---------|
B|--------1-1---------3---3----------1-1--------3-----3-------|
G|------0---------------2----------0--------------2-----2-----|
D|----2-------------0------------2------------0-----------0---|
A|--3-------------0------------3------------0-----------------|
E|------------------------------------------------------------|


First part Chorus:

G, D, E,  

G, D, G

Second part chorus:

    G	       D	       E		       	         Bm
e|--3-3-3----2-2-2--------------0----------------2------------|
B|--3-3-3----3-3-3------------0---0------------3---3----------|
G|--0-0-0----2-2-2----------0----------------4----------------|
D|--0-0-0----0-0-0--------2----------------4------------------|
A|--2-2-2---------------2----------------2--------------------|
E|--3-3-3-------------0---------------------------------------|

    C		             Am		            D
e|----------3--------------0------------------2---------------|
B|--------1---1----------2---2------------3---3--3------------|
G|------0--------------2--------------2-----2----2------------|
D|----2--------------1--------------0---0---------------------|
A|--3--------------0--------------0---------------------------|
E|------------------------------------------------------------|

Then:

Verse,

Chorus,

Verse,


Outro:

E, C, Am, Bm

| /  slide up
| \  slide down
| h  hammer-on
| p  pull-off
| ~  vibrato
| +  harmonic
| x  Mute note
Suggest correction new What's this?
You can suggest a correction to this tab. Community and Mods will review your correction and vote to approve or reject it.
comments
We did not receive enough feedback on this tab! Please rate:
print report bad tab
1 2 3 4 5
guest
You may want to rate the tab now too:
select rating
Please do not post tabs as comments. Select "correction" instead!