Oops, an error
Loading. Please wait.

Balada Del Desarraigado Chords

version 2
version 2

Whole song

by M-Clan
55 views 1 this week
no commentswrite comment
1 2 3 4 5
3 more votes to show rating
add to favorites
launch autoscroll
font size
0
reset
transpose
0
reset
simplify chords
display chords
guitar tuner
Autoscroll
slow
fast
+/-
esc
set tempo
stop
Strumming
There is no strumming pattern for this song yet. and get +5 IQ
Intro: D-G-D-G-A7-RE


e---------------------------------------------------
b--3-------3----------------------------------------
g--2-(4)---2----2------------------0------------0---
d-------------4----4--2-(0)----2/4---4---2-(4)------
a---------------------------------------------------
e---------------------------------------------------


e---------------------------------------------------
b---------------------------------------------------
g---------------------------------------------------
d----4-2-0--2-(0)-----------------------------------
a-------------------5-------------------------------
e---------------------------------------------------


D             G  D
Las lenguas invisibles
D   G         A7  D
del ángel de la guarda
D             G  D
me lamen las mejillas
D   G          A7  D
me acarician la espalda

Bm                   E
Cuando el mundo es cruel
G            D
y todo va a peor
Bm           E
Cuando necesito algo
G            A-A7
más que una canción.


G               D
Y no me siento solo
G                  D
me limpia el frío lodo
G                    D
y el viento trae tu voz

SOLO: D-G-D-G-A7-RE

D                 G    D
La señora de los naúfragos
D   G          A7   D
me protege en la tormenta
D              G  D
me cierra los párpados
D       G      A7   D
ella no pide recompensa

Bm                 E
Y aunque el temporal
G            D
me alejará de ti
Bm           E
no voy a llorar
Em           A-A7
prefiero sonreír

G             D
Y no me siento solo
G             D
me limpia el frío lodo
G              D
y el viento trae tu voz
Suggest correction
Give kudos to tab author, rate the tab!
1 2 3 4 5
comments
print report bad tab
guest
You may want to rate the tab now too:
select rating
Wanna post a correction for this tab? Suggest correction