Oops, an error
Loading. Please wait.

Chilaba Y Cachimba Tab

162 views 1 this week
no commentswrite comment
1 2 3 4 5
3 more votes to show rating
add to favorites
launch autoscroll
font size
0
reset
how to read this tab
guitar tuner
×
Best way to learn
"Chilaba Y Cachimba"
Autoscroll
slow
fast
+/-
esc
set tempo
stop
Aquí va este temazo en directo de M-Clan. Está en Mi mayor. El solo
es bastante simple. Simplemente puede ser un poco costoso para los que
tengáis guitarra española en lugar de acústica por los pequeños bendings

E
Brillante cirujano,

con brillante porvenir,

deslumbrado por el brillo,

"acabao" por el anís.

F#
Pero ha llegado la hora,
          B
me ha costado decidir
           E
y es que estoy bastante harto

de esta vida occidental,
      A
el dinero no me llena,
       E
quiero ser espiritual,
    F#
casarme con cuatro mujeres
  B
y fumar mejor hachís.

      A            E
Oh, Adiós mundo cruel,
              A
me voy a Marruecos
               E
para nunca volver,
            A
colgar el batín,
     B        C#m
cambiar bisturí
                 D      B
por chilaba y cachimba.

E
Una vez que llegue al moro,

me mandáis el cheque allí,
        A
que no pase lo de siempre
          E
y que me tenga que venir,
     F#
que nadie malinterprete
     B
pero hay que sobrevivir.
      A            E
Oh, Adiós mundo cruel,
              A
me voy a Marruecos
              E
para nunca volver,
            A
colgar el batín,
     B        C#m
cambiar bisturí
                 D      B
por chilaba y cachimba, ouowouohaa

(Repetir estribillo)

Ahora viene el solo. Aquí cambia la tonalidad a F# y sigue así durante
toda la canción.

E ------------------------------------------------------------|
B ------------------------------------------------------------|
G ------------------------------------------------4--4--------|
D ---4--4-------------------4-4-4-----------4--6--------64-2-|
A ---------6--2-4-------4-6--------6--2--4--------------------|
E -----------------5b6----------------------------------------|

E ------------------------------------------------------------|
B ------------------------------------------------------------|
G --------------------------6-------------------6-6-----------|
D --4-------------4-4-4-6/8---86--4--4-6-4-6/8-----8---------|
A -----/6---4--6----------------------------------------------|
E ------------------------------------------------------------|

E ---------7-----7--7---------7------9-9-9--11b-11-9----------|
B -----7-9---7-9------9-7--9-------------------------11b-11-9-|
G --6/8--------------------------/10--------------------------|
D ------------------------------------------------------------|
A ------------------------------------------------------------|
E ------------------------------------------------------------|


       B          F#
Oh, Adiós mundo cruel,
             B
me voy a Marruecos
              F#
para nunca volver,
          B
colgar el batín,
    C#    D#m
cambiar bisturí
                E    C#
por chilaba y cachimba.
Suggest correction
Give kudos to tab author, rate the tab!
1 2 3 4 5
comments
print report bad tab
guest
You may want to rate the tab now too:
select rating
Wanna post a correction for this tab? Suggest correction