Oops, an error
Loading. Please wait.

Domingo De Mayo Tab

by M-Clan
123 views 3 this week
no commentswrite comment
1 2 3 4 5
3 more votes to show rating
add to favorites
×
Save as Personal and add changes to this tab that will be seen only by you. Learn more ›
×
You can save this tab as Personal to edit and correct it or add notes. All changes will be seen only by you. Learn more »
save as personal
new!
launch autoscroll
font size
0
reset
how to read this tab
guitar tuner
Autoscroll
slow
fast
+/-
esc
set tempo
stop
Tabulado enviado por:  Pablo Herrero Poza 
no dudeis en mandar vuestros mensajes a pahepo@

INTRO:
E|-------------------------------------------------------------------------------------------|
B|-------------------------------------------------------------------------------------------|
G|--------2--------2---------2------1--2--1--2-----------2--------2--------2-----1--2--1--2--|
D|-----2--------2---------2------0--------------------2--------2--------2-----0--------------|
A|--0--------2---------4---------------------------0--------2--------4-----------------------|
E|-------------------------------------------------------------------------------------------|

E|------------------------------------------------------------------|------------------------|
B|--2-----2--3--5------7------------2-------2---3------5-------7----|------------------------|
G|--2-----2--2--4------7------------2-------2---2------4-------7----|------------------------|
D|------------------------------------------------------------------|------------------------|
A|-----0---------------------4---2------0---------------------------|--------------0---------|
E|-----------------0------0-------------------------0-------0-------|--0----2----------------|

Verse 1

        A             D                         A                   E
        Como__________llegué        ya__no__me__acuerdo   la__boca__se_ca que__más__me

E|--------------------------------------------------------------------------0---0----0--------|
B|-2-----2------0-------------------3----5---5---------------2----0---------0---0----0--------|
G|-2-----2------0-------2---2-------2----4---4----2-----2----2----0----1----------------------|
D|----------------------4---4---------------------2-----2--------------2----------------------|
A|-----0----------------0---0---------------------0-----0-------------------------------------|
E|--------------------------------------------------------------------------------------------|

        A             D                         A 
   da      no__hay__nada__de___________que________lamentarse ni____nada____que____celebrar____

E|--------------------------------------------------------------------------0---0----0--------|
B|-2-----2------0-------------------3----5---5---------------2----0---------0---0----0--------|
G|-2-----2------0-------2---2-------2----4---4----2-----2----2----0----1----------------------|
D|----------------------4---4---------------------2-----2--------------2----------------------|
A|-----0----------------0---0---------------------0-----0-------------------------------------|
E|--------------------------------------------------------------------------------------------|

Verso 2

                A   E            A                               A    E             A
                   La__calle__está__llena                          de__gente__que__mira____

E|-2------------------------------------------------2-----------------------------------------|
B|-3---5---3---2----5---5---5-------2-----2---2-----3---5---3---2----5---5---5---2--2--2------|
G|-----4---2---2----4---4---4-------2-----2---2---------4---2---2----4---4---4---2--2--2------|
D|--------------------------------------------------------------------------------------------|
A|-------------0--------------------0-----0---0-----------------0----------------0--0--0------|
E|------------------0---0---0----------------------------------------0---0---0----------------|

                A   E            D         A           E             D       A          E  *
                y__no__pueden____ver____                   ni__entender____

E|-2------------------4--5-----5------------------------------------------------------|---------|
B|-3---5---3---2------------------3-----3--2---------------------3----3--2------------|---------|
G|-----4---2---2---------------------2--------2---------------------2-------2---------|---------|
D|-----------------------------------------------2--2--2--2--2------------------2---2-|---------|
A|-------------0------------------0--------0--------2--2--2--2---0-------0----------2-|------0--|
E|--------------------------------------------------0--0--0--0----------------------0-|-0--2----|


                                      *

Hey bien, está bien                   E|-------------------------------------|
algún amigo que se acuerda            B|-------------------------------------|
hay un hueco aquí para los dos        G|-------------1--2------1--2----------|
pero a mí no me pongas hoy            D|-------------------0-----------------|
hay gente que cree que puede elegir   A|--0---2---4------------------4---2---|
y no pueden ver que eso no es así.*   E|-------------------------------------|


ESTRIBILLO

   A     D    E    D    E    D        A      A     D          E     D   E   A      
                      Mañana__de__domingo__en__mi__cabeza
                      resuena__toda__la__noche__de__ayer
                      me__quedaré__sentado__en__la__escalera
               no__tengo__nada__que__hacer
E|---------------------------------------------------------------------------------------|
B|-2-----3----5----7----5----3----2-----2-----3-----5-----7---5---2------------------*---|
G|-2-----2----4----7----4----2----2-----2-----2-----4-----7---4---2----------------------|
D|-----------------0--------------------------------------0------------------------------|
A|-0------------------------------0-----0-------------------------0------------------*---|
E|------------0---------0-------------------------0-----------0--------------------------|

SOLO

E|------------14---12-------12------------------------10---10-----------5---5------------|
B|--10/--15------------14--------14---10---10----12--------------7-----------------------|
G|------------------------------------------------------------------------------2--4--2--|
D|---------------------------------------------------------------------------------------|
A|---------------------------------------------------------------------------------------|
E|---------------------------------------------------------------------------------------|

                           
                              *
Fuí A visitar A [ch]A[/ch] madre fortuna      E|-------------------------------------|
y no me dijo lo que no quise saber    B|-------------------------------------|
nadie puede comprender a un extraño   G|-------------1--2------1--2----------|
y nadie puede sentir como él.         D|-------------------0-----------------|
Hay gente que habla de tí y de mí     A|--0---2---4------------------4---2---|
que fácil hablar.*                    E|-------------------------------------|

Mañana de domingo...

GUITARRA

E|------------0----------5-------------------0-------0----------0------0-----------------|
B|-----2---------2----------5----3--2-----------3-------3--2-------3------3--------------|
G|-------2---------2----------4--------1-----------2-----------------4-------------------|
D|---------2-----------------------------------------------------------------5-----------|
A|--0-----------------2---------------------------------------0--------------------------|
E|-----------------------------------------0---------------------------------------------|

E|-----------0------------5-----------------------|
B|--2--2---------0-----------5------3--2------3---|
G|--2-----1---------1-----------4---------1---2---|
D|--------------------------------------------0---|
A|--0------------------0--------------------------|
E|------------------------------------------------|

INTRO

Mueves tú o muevo yo,
sales tú o entro yo,
vienes tú o voy yo,
domingo de mayo.

E|-------------------------------------------------------------------------------------------|
B|-------------------------------------------------------------------------------------------|
G|--------2--------2---------2------1--2--1--2-----------2--------2--------2-----1--2--1--2--|
D|-----2--------2---------2------0--------------------2--------2--------2-----0--------------|
A|--0--------2---------4---------------------------0--------2--------4-----------------------|
E|-------------------------------------------------------------------------------------------|
Suggest correction
Give kudos to tab author, rate the tab!
1 2 3 4 5
comments
print report bad tab
guest
Wanna post a correction for this tab? Suggest correction