Oops, an error
Loading. Please wait.

El General Tab

by M-Clan
56 views 1 this week
no commentswrite comment
1 2 3 4 5
3 more votes to show rating
add to favorites
launch autoscroll
font size
0
reset
how to read this tab
guitar tuner
×
Best way to learn
"El General"
Autoscroll
slow
fast
+/-
esc
set tempo
stop
                                    
Le dedico esta canción a mis padres y a mis amigos Yassir, Ismael, y Sunny.


E------------------------------/--------------------------/
B-----------------4-5-4------/----------------4-5-4----/
G-----6-4------4--------6-4-/----6-4-----4------------/
D--4-------6-4---------------/--4-----6-4--------------/
A----------------------------- /--------------------------/
E------------------------------/--------------------------/

E---------------------------------/------------------
B----------------5----4-5-4-----/------------------
G-------------4----4-------6-4--/------------------
D----4-6-7-----------------------/-----------------
A---------------------------------/------------------
E---------------------------------/------------------

E--------------------------------/-------------------------------
B--------------5---4-5-4------/-------------5---4-5-4-------
G-----------4---4---------6-4-/----------4---4---------6-4--
D--4-6-7----------------------/--4-6-7-------------------------
A----------------------------- -/-----------------------------------
E-------------------------------/-----------------------------------

E-------------------------------------------------------------
B-------------5----4- ~ ~ -------------------------------------
G-------------------4-----4------------------------------------
D--4-6-7-------------------------------------------------------
A---------------------------------------------------------------
E---------------------------------------------------------


B            A            E      A      A      A
El general viene por aquí,
B      A      E       A      B
es un rompecabezas y en general 
A           E          A
tiene para ti una maldición.

E---------------------------------
B--------------5-----4- ~ ~ ----
G----------4-----4---------------
D--4-6-7----------------------
A-------------------------------
E--------------------------------


B             A      E      A      A      A      B
Nunca nos da nada de comer,
       A            E       A      B
nos habla de la patria,
            A      E      A
no será que no puede amar el general.

E---------------------------------
B--------------5-----4- ~ ~ ----
G----------4-----4---------------
D--4-6-7----------------------
A-------------------------------
E--------------------------------


A                  E
Queremos que se vaya!
      B            E               A
El general no quiere conversar,
  B      A         E
no le interesa lo que pasa,
B            A       E
El general tiene una colección 
E      A            E
de calaveras en su espalda.
E--------------------------------------------------------------------                  
B--------------5-----4-5-4----------------------5---4- ~ ~ ------
G----------4-----4----------6-4-----------4---4-------------------
D--4-6-7--------------------------4-6-7---------------------------
A--------------------------------------------------------------------
E--------------------------------------------------------------------

B              A          E               A      A      B
No nos importa si esta medio muerto,
      A      E      A  B    E
porque si esta despierto, esta vez 
 E      A         B      E
tiene que pagar, el general.

E---------------------------------
B--------------5-----4- ~ ~ ----
G----------4-----4---------------
D--4-6-7----------------------
A-------------------------------
E--------------------------------

      A                  E      E
Que no lo dejen suelto.
      B            E               A
El general no quiere conversar,
  B      A         E
no le interesa lo que pasa,
B            A       E
El general tiene una colección 
E      A
de calaveras en su espalda.

E----------------------------------12-12-9------------------------
B---5-5-4-4-4-5-------------12----------10-12-12-12-12-10-
G-4---------------6-6-6-4 ~ --------------------------------------
D--------------------------------------------------------------------
A--------------------------------------------------------------------
E---------------------------------------------------------------------

E--14-14-14-14-9-9-12-9----------------------------------------
B------------------------------12-----------------------------------
G--------------------------------------------------------------------
D--------------------------------------------------------------------
A--------------------------------------------------------------------
E--------------------------------------------------------------------


E--------/--------------------------/-----------------------/
B-10----/--------------------------/-----------------------/
G----11-/-----9----9-----9-------/-7-4----------4-7-4--/
D--------/-11---11---11---11-9-/------7-4-------------/
A--------/--------------------------/-----------7-5--------/
E--------/--------------------------/-----------------------/

E---------------------------------------------------
B---------------------------------------------------
G---------7----------------------7-9--------------
D--6-8-9---8-9-5-7-8-9-5-7-------9-7----------
A---------------------------------------------9----
E---------------------------------------------------


E--------------------------------------------------------------
B--------------------------------------------------12-14-----
G-6-8-9-------11-11-11-11-11-11-11-11-14--------12--
D--------9-7---------------------------------------------------
A-------------9------------------------------------------------
E----------------------------------------------------------------

E-------------------------------------------
B--12^13^12------5^7^5----------------
G---------------14--------6---4^6^4-2-4-
D--------------------------------------------
A--------------------------------------------
E---------------------------------------------


            A                                          

Queremos que se vaya,      
                        B-7---------------------------
                  G---6-4-----------------------
                  D--------7--------------------

B
que se vaya,      
                        B--7---------------------------
                     G-----6-4----------------------
                  D----------7-------------------

    A                  E            A
que se lleve su bastón y sus medallas.
      B            E               A
El general no quiere conversar,
  B      A         E      A
no le interesa lo que pasa,
B            A       E
El general tiene una colección                               
                        B----7-5---4--------------
                  G-4------4----6-----------                  
E      A                                                
de calaveras en su espalda.
      B            E               A            B
El general no quiere conversar,
        A         E
no le interesa lo que pasa,
B            A       E
El general tiene una colección 
E      A
de calaveras en su espalda.

E---------------------------------/-----------------------------------
B---------------5----4-5-4------/----------------5----4-5-4-------
G-------------4---4---------6-4-/-------------4----4---------6-4--
D----4-6-7----------------------/----4-6-7-------------------------
A----------------------------- ---/------------------------------------
E---------------------------------/------------------------------------

E------------------------------
B------------5----4-5 4------
G---------4----4---------6-4-
D--4-6-7----------------------
A-------------------------------
E-------------------------------


E---------------------------------/--------------------------------------/
B---------------5----4 ~ --------/-------------5----4-5---------------/
G-------------4---4--------------/-----------4----4-------7-6-4------/
D----4-6-7----------------------/----4-6-7------------------------7--/
A----------------------------- ---/--------------------------------------/
E---------------------------------/--------------------------------------/

E--------------------------------------
B--------------5----4-5--------------
G-----------4----4-------7-6-4------
D--4-6-7-----------------------7-----
A--------------------------------------
E--------------------------------------

E---------------------------------------/-------------------------------
B---------------5----4-5-4------------/-----------------5----4~ ~ --
G-------------4---4---------7-6-4----/----------4----4--------------
D----4-6-7-------------------------7--/---4-6-7---------------------
A----------------------------- ---------/-------------------------------
E---------------------------------------/-------------------------------

E--------------------------------------/
B--------------------------------------/
G-4 ~ ~ 4 ~ ~ 4 ~ ~ 4 ~ ~ ~ -------/
D--------------------------------------/
A--------------------------------------/
E--------------------------------------/
Suggest correction
Give kudos to tab author, rate the tab!
1 2 3 4 5
comments
print report bad tab
guest
You may want to rate the tab now too:
select rating
Wanna post a correction for this tab? Suggest correction