Oops, an error
Loading. Please wait.

Escucha Mi Voz Chords

version 2
version 2

Whole song

52 views 3 this week
no commentswrite comment
1 2 3 4 5
3 more votes to show rating
add to favorites
launch autoscroll
font size
0
reset
transpose
0
reset
simplify chords
display chords
guitar tuner
Autoscroll
slow
fast
+/-
esc
set tempo
stop
Help us to improve Ultimate-Guitar.com Take our survey!
×
Despues de varios an^os sin poner ninguna partitura,
vuelvo con este maravilloso single del disco de M-Clan: ARENAS MOVEDIZAS!!

Carlos Tarque:  ERES EL MEJOR CANTANTE DEL UNIVERSO!!!!

M-Clan - Escucha Mi Voz

D               D*
Puede que esta noche
      G
sea la última
Em         D
que canto a los demás.
D                  D7
Gracias por los aplausos
         G             Em     D
por los destellos donde vi felicidad.


Am          C
Creo que fui testigo
    Em
de las montañas
                  D
de una vida y el amor.
Am                C
Nunca pensé que el mundo
Em                      A
podría ser sin ti un lugar desolador...

Estribillo:

D             A#
Escucha mi voz
D              A#
escucha mi voz
       Em                    A
que se ahoga en medio de esta soledad
        D
escucha mi voz.


D                D%
Busco un verso perdido
D%             G              Em             D
que entre el espacio de tus labios se escapó.
D                 D%
Veo tu nombre escrito
G              Em             D
en los amarres fríos de la decepción.
Am                C
Barcos que un día ardieron,
            Em                   D
que nos dejaron cicatrices en la piel.
Am             C
Luces entre tu pelo
      Em                 A
justo cuando empezaste a desaparecer...


Estribillo:
D             A#
Escucha mi voz
D            A#
escucha mi voz
        Em                   A
que se ahoga en medio de esta soledad
    A#           C
escucha mi voz.

ACORDES DE LA SECCION DE SOLO (x8)


E---/---/--/--/--/--5---
B---/---/-3-/--/--/----
G---/-2-/--/--/--/-----
D---/---/--/--/--/----
A---/---/--/--/--/---
E---/---/--/--/--/---

E---/---/---/-4-/--/--
B---/---/-3-/--/--/--
G---/-2-/--/--/---/-----
D---/---/--/--/---/----
A---/---/--/--/---/---
E---/---/--/--/---/---

E---/---/-3-/--/--/-----
B---/---/-3-/--/--/----
G---/-2-/--/---/--/-----
D---/---/--/---/--/----
A---/---/--/---/--/---
E---/---/--/--/--/---

E---/-2--/--/--/--/--
B---/---/-3-/--/--/----
G---/-2-/--/--/--/-----
D---/---/--/--/--/----
A---/---/--/--/--/---
E---/---/--/--/--/---

MOMENTO DE BATERIA

MOMENTO DE ACORDES (x 4)

E---/-2--/--/--/--/--
B---/---/-3-/--/--/----
G---/-2-/--/--/--/-----          o        D
D---/---/--/--/--/----
A---/---/--/--/--/---
E---/---/--/--/--/---

E---/---/-3-/--/--/--
B---/---/-3-/--/--/----
G---/-2-/--/--/--/-----          o        D
D---/---/--/--/--/----
A---/---/--/--/--/---
E---/---/--/--/--/---

E---/---/--/--/-5-/--
B---/---/-3-/--/--/----
G---/-2-/--/--/--/-----          o        D
D---/---/--/--/--/----
A---/---/--/--/--/---
E---/---/--/--/--/---

A#


Estribillo:
D           A#
Escucha mi voz
      D        A#
escucha mi voz
      Em                     A
que se ahoga en medio de esta soledad
D            A#
escucha mi voz.

D A# D #A

Woo Uuooo

D A# D #A


E---/---/--/--/--/--5---
B---/---/-3-/--/--/----
G---/-2-/--/--/--/-----
D---/---/--/--/--/----
A---/---/--/--/--/---
E---/---/--/--/--/---

E---/---/---/-4-/--/--
B---/---/-3-/--/--/--
G---/-2-/--/--/---/-----
D---/---/--/--/---/----
A---/---/--/--/---/---
E---/---/--/--/---/---

E---/---/-3-/--/--/-----
B---/---/-3-/--/--/----
G---/-2-/--/---/--/-----
D---/---/--/---/--/----
A---/---/--/---/--/---
E---/---/--/--/--/---

E---/-2--/--/--/--/--
B---/---/-3-/--/--/----
G---/-2-/--/--/--/-----
D---/---/--/--/--/----
A---/---/--/--/--/---
E---/---/--/--/--/---


D


---------------------------------
acorde D* =

E---/-0--/--/--/--/--
B---/---/-3-/--/--/----
G---/-2-/--/--/--/-----
D---/---/--/--/--/----
A---/---/--/--/--/---
E---/---/--/--/--/---

acorde D% =


E-0--/---/--/--/--/--
B-0--/---/--/--/--/----
G-1--/--/--/--/--/-----
D-0--/---/--/--/--/----
A-0--/---/--/--/--/---
E-0--/---/--/--/--/---
Suggest correction
Give kudos to tab author, rate the tab!
1 2 3 4 5
comments
print report bad tab
guest
You may want to rate the tab now too:
select rating
Wanna post a correction for this tab? Suggest correction