Oops, an error
Loading. Please wait.

Llamando A La Tierra Tab

version 2
version 2

Whole song

by M-Clan
252 views 1 this week
no commentswrite comment
1 2 3 4 5
3 more votes to show rating
add to favorites
×
Save as Personal and add changes to this tab that will be seen only by you. Learn more ›
×
You can save this tab as Personal to edit and correct it or add notes. All changes will be seen only by you. Learn more »
save as personal
new!
launch autoscroll
font size
0
reset
how to read this tab
guitar tuner
Autoscroll
slow
fast
+/-
esc
set tempo
stop
				
E---------------------------------------------------------------
B---------5-10-13-12-7-10-13-12-8-7-5-6-5-10-13-10-
G--2-5--------------------------------------------------------
D--------------------------------------------------------------
A--------------------------------------------------------------
E---------------------------------------------------------------

E-12-----------------------------8----------------------------
B----10------10--12-----------------------------------------
G---------9----------------9----------------------------------
D-------------10---9--7--------------------------------------
A--------------------------------------------------------------
E--------------------------------------------------------------

E--8-7--------------5---8-7-------------------------------------
B-------8-7-8-7--------------5-10---13-13-12-10--10-8-6--
G-----------------7-----------------------------------------------
D------------------------------------------------------------------
A------------------------------------------------------------------
E------------------------------------------------------------------

E-----------------12--(12 veces)---10--5--5--17---12----20-
B--5----7---------------------------------------------------------
G----5-----7------------------------------------------------------
D------------------------------------------------------------------
A------------------------------------------------------------------
E-------------------------------------------------------------------

E--17-12-10-5-[(5------)---------------]-12-10----12-10-----
B----------------[(--8-5 )tocar 5 veces-]--------11--------11--
G-------------------------------------------------------------------
D-------------------------------------------------------------------
A-------------------------------------------------------------------
E--------------------------------------------------------------------

E-12-8-12slide to last string-12-10------------------8-12----
B---------------------------------------13-10-8------------------
G-------------------------------------------------10-10-----------
D-------------------------------------------------------------------
A-------------------------------------------------------------------
E-------------------------------------------------------------------

E------10----ls-17-12-12-----------------------------------------
B-10-----10----------------13-10-12--13-10--8-6-5-----------
G----------------------------------------------------------7-9-----
D--------------------------------------------------------------------
A-------------------------------------------------------------------
E--------------------------------------------------------------------
E----------------------------------------------------------------
B--------12-13-13-12-13-15-15-13-15--------------------
G-9-14---------------------------------------------------------
D---------------------------------------------------------------
A---------------------------------------------------------------
E----------------------------------------------------------------


E----12---------17-17-19--20-19-20------------------------
B----------------------------------------------------------------
G---------14----------------------------------------------------
D----------------------------------------------------------------
A----------------------------------------------------------------
E----------------------------------------------------------------
Suggest correction
Give kudos to tab author, rate the tab!
1 2 3 4 5
comments
print report bad tab
guest
Wanna post a correction for this tab? Suggest correction