Oops, an error
Loading. Please wait.

Llamando A La Tierra Tab

version 3
version 3

Whole song

170 views 6 this week
no commentswrite comment
1 2 3 4 5
3 more votes to show rating
add to favorites
launch autoscroll
font size
0
reset
how to read this tab
guitar tuner
×
Best way to learn
"Llamando A La Tierra"
Autoscroll
slow
fast
+/-
esc
set tempo
stop
M-Clan - Llamando a la tierra (alcantarilla version)


E||--5--------------------------|-----------------------------|
B||--25--15--25--7--------------|-----------------------------|
G||------8-------4--------------|-----------------------------|
D||----------23-----1--2--3--4--|--5--6--7--8--9--10--11--12--|
A||------4----------------------|-----------------------------|
E||------30---------------------|-----------------------------|


----------------------------------|--------------24--25--26--27--28--|
----------------------------------|--21--22--23----------------------|
----------15--16--17--18--19--20--|----------------------------------|
--13--14--------------------------|----------------------------------|
----------------------------------|----------------------------------|
----------------------------------|----------------------------------|


--29------30-----9--5--------|--------------------8-----|
----------25--8--------5--4--|--2--6--------------9--4--|
----------16-----------------|--------2-----8--9-----2--|
----------4------------------|-----------5--4-----------|
----------5------------------|--------------------------|
------30--2------------------|--------------------------|


-----7--8-----------------|--------8--6--------------|
-----7--5--8--7--4--------|-----8--6--5--6-----------|
--8--8--6--8-----2--3-----|--8--6--------2--6--------|
--2-----2--4--------2--3--|--5-----------4--4-----7--|
--------------------------|--------------2--6--6--8--|
--------------------------|--------------------------|


--------------------0--0--|--0--0--0--0--0--0--0-----|
--------------------0--0--|--0--0--0--0--0--0--0-----|
--8--9--6-----4--0--0--0--|--0--0--0--0--0--0--0-----|
--8-----5--0--1--0--0--0--|--0--0--0--0--0--0--0-----|
--------------------0--0--|--0--0--0--0--0--0--0--5--|
--------------------0--0--|--0--0--0--0--0--0--0--1--|


--------8--9-----------------------|----------7--9--------------|
-----7-----5-----------------------|------24--8--6--3-----------|
--8--9-----6--5-----------------8--|--25------------0-----------|
--4-----------4--6--6--------8--9--|-------------------0---21---|
--------------------5--4--8--9-----|-----------------------0----|
-----------------------5--4--------|----------------------------|


----------------------------|--5--4-----------------8--8--|
--4---4---6-----------7--2--|--------------------8--8-----|
--4-------23---3------8-----|-----------------8--8--------|
--4------------5---6--9-----|--------------8--8-----------|
-------------------7--8-----|-----------8--8--------------|
----------------------------|-----7--8--8-----------------|


--8--8--8--8--8--8--8--8--8--|--8--8--8--8--8--8--8--------|
-----------------------------|-----------------------5--5--|
-----------------------------|--------------------------5--|
-----------------------------|-----------------------------|
-----------------------------|-----------------------------|
-----------------------------|-----------------------------|


--------------------------------|-----------------8--8--9--8--|
--------------8--7-----------9--|--9--9--------8--9--------5--|
--5--5-----8--9-----5--8--9-----|--------9--8--9--------------|
-----4-----7--------------------|-----------9-----------------|
-----5--8-----------------------|-----------------------------|
--------------------------------|-----------------------------|


-----------|--5--------------------------|
--7--------|--25--15--25--7--------------|
--5--9-----|------8-------4--------------|
-----5--8--|----------23-----1--2--3--4--|
-----------|------4----------------------|
-----------|------30---------------------|


-----------------------------|----------------------------------|
-----------------------------|----------------------------------|
-----------------------------|----------15--16--17--18--19--20--|
--5--6--7--8--9--10--11--12--|--13--14--------------------------|
-----------------------------|----------------------------------|
-----------------------------|----------------------------------|


--------------24--25--26--27--28--|--29------30-----9--5--------|
--21--22--23----------------------|----------25--8--------5--4--|
----------------------------------|----------16-----------------|
----------------------------------|----------4------------------|
----------------------------------|----------5------------------|
----------------------------------|------30--2------------------|


--------------------8-----|-----7--8-----------------|
--2--6--------------9--4--|-----7--5--8--7--4--------|
--------2-----8--9-----2--|--8--8--6--8-----2--3-----|
-----------5--4-----------|--2-----2--4--------2--3--|
--------------------------|--------------------------|
--------------------------|--------------------------|


--------8--6--------------|--------------------0--0--|
-----8--6--5--6-----------|--------------------0--0--|
--8--6--------2--6--------|--8--9--6-----4--0--0--0--|
--5-----------4--4-----7--|--8-----5--0--1--0--0--0--|
--------------2--6--6--8--|--------------------0--0--|
--------------------------|--------------------0--0--|


--0--0--0--0--0--0--0-----|--------8--9-----------------------|
--0--0--0--0--0--0--0-----|-----7-----5-----------------------|
--0--0--0--0--0--0--0-----|--8--9-----6--5-----------------8--|
--0--0--0--0--0--0--0-----|--4-----------4--6--6--------8--9--|
--0--0--0--0--0--0--0--5--|--------------------5--4--8--9-----|
--0--0--0--0--0--0--0--1--|-----------------------5--4--------|


----------7--9--------------|----------------------------|
------24--8--6--3-----------|--4---4---6-----------7--2--|
--25------------0-----------|--4-------23---3------8-----|
-------------------0---21---|--4------------5---6--9-----|
-----------------------0----|-------------------7--8-----|
----------------------------|----------------------------|


--5--4-----------------8--8--|--8--8--8--8--8--8--8--8--8--|
--------------------8--8-----|-----------------------------|
-----------------8--8--------|-----------------------------|
--------------8--8-----------|-----------------------------|
-----------8--8--------------|-----------------------------|
-----7--8--8-----------------|-----------------------------|


--8--8--8--8--8--8--8--------|--------------------------------|
-----------------------5--5--|--------------8--7-----------9--|
--------------------------5--|--5--5-----8--9-----5--8--9-----|
-----------------------------|-----4-----7--------------------|
-----------------------------|-----5--8-----------------------|
-----------------------------|--------------------------------|


-----------------8--8--9--8--|-----------|
--9--9--------8--9--------5--|--7--------|
--------9--8--9--------------|--5--9-----|
-----------9-----------------|-----5--8--|
-----------------------------|-----------|
-----------------------------|-----------|


--5--------------------------|-----------------------------|
--25--15--25--7--------------|-----------------------------|
------8-------4--------------|-----------------------------|
----------23-----1--2--3--4--|--5--6--7--8--9--10--11--12--|
------4----------------------|-----------------------------|
------30---------------------|-----------------------------|


----------------------------------|--------------24--25--26--27--28--|
----------------------------------|--21--22--23----------------------|
----------15--16--17--18--19--20--|----------------------------------|
--13--14--------------------------|----------------------------------|
----------------------------------|----------------------------------|
----------------------------------|----------------------------------|


--29------30-----9--5--------|--------------------8-----|
----------25--8--------5--4--|--2--6--------------9--4--|
----------16-----------------|--------2-----8--9-----2--|
----------4------------------|-----------5--4-----------|
----------5------------------|--------------------------|
------30--2------------------|--------------------------|


-----7--8-----------------|--------8--6--------------|
-----7--5--8--7--4--------|-----8--6--5--6-----------|
--8--8--6--8-----2--3-----|--8--6--------2--6--------|
--2-----2--4--------2--3--|--5-----------4--4-----7--|
--------------------------|--------------2--6--6--8--|
--------------------------|--------------------------|


--------------------0--0--|--0--0--0--0--0--0--0-----|
--------------------0--0--|--0--0--0--0--0--0--0-----|
--8--9--6-----4--0--0--0--|--0--0--0--0--0--0--0-----|
--8-----5--0--1--0--0--0--|--0--0--0--0--0--0--0-----|
--------------------0--0--|--0--0--0--0--0--0--0--5--|
--------------------0--0--|--0--0--0--0--0--0--0--1--|


--------8--9-----------------------|----------7--9--------------|
-----7-----5-----------------------|------24--8--6--3-----------|
--8--9-----6--5-----------------8--|--25------------0-----------|
--4-----------4--6--6--------8--9--|-------------------0---21---|
--------------------5--4--8--9-----|-----------------------0----|
-----------------------5--4--------|----------------------------|


----------------------------|--5--4-----------------8--8--|
--4---4---6-----------7--2--|--------------------8--8-----|
--4-------23---3------8-----|-----------------8--8--------|
--4------------5---6--9-----|--------------8--8-----------|
-------------------7--8-----|-----------8--8--------------|
----------------------------|-----7--8--8-----------------|


--8--8--8--8--8--8--8--8--8--|--8--8--8--8--8--8--8--------|
-----------------------------|-----------------------5--5--|
-----------------------------|--------------------------5--|
-----------------------------|-----------------------------|
-----------------------------|-----------------------------|
-----------------------------|-----------------------------|


--------------------------------|-----------------8--8--9--8--|
--------------8--7-----------9--|--9--9--------8--9--------5--|
--5--5-----8--9-----5--8--9-----|--------9--8--9--------------|
-----4-----7--------------------|-----------9-----------------|
-----5--8-----------------------|-----------------------------|
--------------------------------|-----------------------------|


-----------|--5--------------------------|
--7--------|--25--15--25--7--------------|
--5--9-----|------8-------4--------------|
-----5--8--|----------23-----1--2--3--4--|
-----------|------4----------------------|
-----------|------30---------------------|


-----------------------------|----------------------------------|
-----------------------------|----------------------------------|
-----------------------------|----------15--16--17--18--19--20--|
--5--6--7--8--9--10--11--12--|--13--14--------------------------|
-----------------------------|----------------------------------|
-----------------------------|----------------------------------|


--------------24--25--26--27--28--|--29------30-----9--5--------|
--21--22--23----------------------|----------25--8--------5--4--|
----------------------------------|----------16-----------------|
----------------------------------|----------4------------------|
----------------------------------|----------5------------------|
----------------------------------|------30--2------------------|


--------------------8-----|-----7--8-----------------|
--2--6--------------9--4--|-----7--5--8--7--4--------|
--------2-----8--9-----2--|--8--8--6--8-----2--3-----|
-----------5--4-----------|--2-----2--4--------2--3--|
--------------------------|--------------------------|
--------------------------|--------------------------|


--------8--6--------------|--------------------0--0--|
-----8--6--5--6-----------|--------------------0--0--|
--8--6--------2--6--------|--8--9--6-----4--0--0--0--|
--5-----------4--4-----7--|--8-----5--0--1--0--0--0--|
--------------2--6--6--8--|--------------------0--0--|
--------------------------|--------------------0--0--|


--0--0--0--0--0--0--0-----|--------8--9-----------------------|
--0--0--0--0--0--0--0-----|-----7-----5-----------------------|
--0--0--0--0--0--0--0-----|--8--9-----6--5-----------------8--|
--0--0--0--0--0--0--0-----|--4-----------4--6--6--------8--9--|
--0--0--0--0--0--0--0--5--|--------------------5--4--8--9-----|
--0--0--0--0--0--0--0--1--|-----------------------5--4--------|


----------7--9--------------|----------------------------|
------24--8--6--3-----------|--4---4---6-----------7--2--|
--25------------0-----------|--4-------23---3------8-----|
-------------------0---21---|--4------------5---6--9-----|
-----------------------0----|-------------------7--8-----|
----------------------------|----------------------------|


--5--4-----------------8--8--|--8--8--8--8--8--8--8--8--8--|
--------------------8--8-----|-----------------------------|
-----------------8--8--------|-----------------------------|
--------------8--8-----------|-----------------------------|
-----------8--8--------------|-----------------------------|
-----7--8--8-----------------|-----------------------------|


--8--8--8--8--8--8--8--------|--------------------------------|
-----------------------5--5--|--------------8--7-----------9--|
--------------------------5--|--5--5-----8--9-----5--8--9-----|
-----------------------------|-----4-----7--------------------|
-----------------------------|-----5--8-----------------------|
-----------------------------|--------------------------------|


-----------------8--8--9--8--|-----------||
--9--9--------8--9--------5--|--7--------||
--------9--8--9--------------|--5--9-----||
-----------9-----------------|-----5--8--||
-----------------------------|-----------||
-----------------------------|-----------||

Esta canción la escuche ayer en una gala en mi instituto y me
sonaba de algo y resulta que la tenia en tablatura y decidí
colgarla aqui es muy facil de tocar.
Suggest correction
Give kudos to tab author, rate the tab!
1 2 3 4 5
comments
print report bad tab
guest
You may want to rate the tab now too:
select rating
Wanna post a correction for this tab? Suggest correction