Oops, an error
Loading. Please wait.

Maggie Despierta Tab

version 2
version 2

Whole song

165 views 3 this week
no commentswrite comment
1 2 3 4 5
3 more votes to show rating
add to favorites
launch autoscroll
font size
0
reset
how to read this tab
guitar tuner
Autoscroll
slow
fast
+/-
esc
set tempo
stop
Help us to improve Ultimate-Guitar.com Take our survey!
×
esta es la version (lo mas fiel que he podido sacar^^) del solo
de la version acustica de Maggie despierta de M-Clan.


NOTAS:
(up1/2)-estirar la cuerde hacia arriba hasta subir el sonido medio tono
p      -pullover, levantar el dedo de la nota mas alta para que suene la
                  siguiente nota sin puntear con la pua.
r      - roll,cambiar de traste con el mismo dedo sin dejar de
              presionar la cuerda.


solo 1

-------------------------------------------------------------------
-------------------------------------------------------------------
-------------------------------------------------------------------
----------------------------------7------7-10-12(up12)-12p10p9-10-7
7-10-7--------7-10-7---------7-10---7-10---------------------------
-------10-7-3--------10-7-10---------------------------------------


--------------------------------8-8-------------------------
------------------------------8-----8-6---------------------
-------------------------7-10-----------9-7-5-9-9-9-9r-5-7
--------------------7-10------------------------------------
7-10-7---------7-10-----------------------------------------
-------10-7-10----------------------------------------------


solo 2

-------------------------------------------------------------------
-------------------------------------------------------------------
-------------------------------------------------------------------
----------------------------------7------7-10-12(up12)-12p10p9-10-7
7-10-7--------7-10-7---------7-10---7-10---------------------------
-------10-7-3--------10-7-10---------------------------------------


---------------------------------8-8-------------------------
-------------------------------8-----8-6---------------------
--------------------------7-10-----------9-7-5-9-9-9-9r-5-7--
---------------------7-10------------------------------------
-7-10-7---------7-10-----------------------------------------
--------10-7-10----------------------------------------------


--------------------------------------------------------------------
--------------------------------------------------------------------
--------------------------------------------------------------------
----------------------------------7------7-10-12(up1/2)-12p10p9-10-7
7-10-7--------7-10-7---------7-10---7-10----------------------------
-------10-7-3--------10-7-10----------------------------------------


------------------------
------------------------
------------------------
--------------------7-10
7-10-7---------7-10-----
-------10-7-10----------


punteo final (repetir hasta acabar la cancion)
----------12-13-15-15-13-12----13-13-12----12------------------
-13-13-15-------------------15----------15----13-13-13---------
------------------------------------------------------14-12-14
--------------------------------------------------------------
--------------------------------------------------------------
--------------------------------------------------------------


espero haber sido de ayuda.


ederubert@
Suggest correction
Give kudos to tab author, rate the tab!
1 2 3 4 5
comments
print report bad tab
guest
You may want to rate the tab now too:
select rating
Wanna post a correction for this tab? Suggest correction