Oops, an error
Loading. Please wait.

Maggie Despierta Tab

version 3
version 3

Whole song

by M-Clan
379 views 1 this week
no commentswrite comment
1 2 3 4 5
3 more votes to show rating
add to favorites
launch autoscroll
font size
0
reset
how to read this tab
guitar tuner
×
Best way to learn
"Maggie Despierta"
Autoscroll
slow
fast
+/-
esc
set tempo
stop
INTRO
e:|--------0----|------0----|------0---0----|--0------
B:|------1---3--|--1-----3--|--1-----3---1--|----3-1--
G:|--0-2--------|----2------|---------------|---------
D:|-------------|-----------|----3----------|---------
A:|-------------|-----------|---------------|---------
E:|-------------|-----------|---------------|---------

e:|--------0----|------0----|------0---0----|
B:|------1---3--|--1-----3--|--1-----3---1--|
G:|--0-2--------|----2------|---------------|
D:|-------------|-----------|----3----------|
A:|-------------|-----------|---------------|
E:|-------------|-----------|---------------|

[ch]C  RE[/ch]
G                F                   C
Vamos Maggie despierta tengo algo que decir
G                F               C
llegó septiembre y creo que me tengo que ir.
F                    C         F                    G
El curso ha empezado ya y mis libros no sé donde están

    Dm                    Em     Dm          G
    Oh Maggie no es el mejor final
         Dm               G          Dm                 G
    pero sé que te repondrás y que a mí me costará mucho más
              Dm            G                C
    me has destrozado pero yo te quiero igual.

       G                F                   C
Si el sol te da en la cara deja ver tu verdadera edad
      G                  F                C
pero esto nunca me ha importado, esa es la verdad.
    F                C          F                   G
Rompiste mi cama en dos y ahora tengo que decirte adiós

    Dm               Em       Dm          G
    oh Maggie libérame por favor.
    Dm                G         Dm                   G
    Sé que te repondrás y que a mí me costará mucho más
      Dm                G                C
    estoy cansado pero aún te quiero igual.

 Solo.
    Dm    G    C    F
    Dm    G    C

G              F         C
Creo que volveré a clase otra vez
       G             F                  C
o viviré tomando el sol con la herencia de papá
        F               C
o formaré una banda de rock
F                    G
eso es lo que hago mejor.

    Dm                     Em     Dm          G
    Oh Maggie se que no es buen final,
    Dm                 G         Dm               G
    sé que te repondrás y que a mí me costará mucho más
    Dm                   G                 C
    me hiciste polvo pero yo te quiero igual.

 Solo. (x2)
    Dm    G    C    F
    Dm    G    C
    C     Dm   F    C

e:|-------------|------0-1-3--|--3-1-0---1--|--1-0---0----
B:|--1-------1--|--1-3--------|--------3----|------3---1--
G:|----2-0-2----|-------------|-------------|-------------
D:|-------------|-------------|-------------|-------------
A:|-------------|-------------|-------------|-------------
E:|-------------|-------------|-------------|-------------

e:|-------------|------0-1-3--|--3-1-0---1--|--1-0---0----
B:|--1-------1--|--1-3--------|--------3----|------3---1--
G:|----2-0-2----|-------------|-------------|-------------
D:|-------------|-------------|-------------|-------------
A:|-------------|-------------|-------------|-------------
E:|-------------|-------------|-------------|-------------

hasta el final (en punteo)

C          Dm     F           C
Maggie despierta tengo que irme ya
C                  Dm         F              C
Me hiciste polvo Maggie pero yo te quiero igual.

C   Dm   F   C hasta el final (acordes)
Suggest correction
Give kudos to tab author, rate the tab!
1 2 3 4 5
comments
print report bad tab
guest
You may want to rate the tab now too:
select rating
Wanna post a correction for this tab? Suggest correction