Oops, an error
Loading. Please wait.

Piratas Tab

11 views 1 this week
no commentswrite comment
1 2 3 4 5
3 more votes to show rating
add to favorites
launch autoscroll
font size
0
reset
how to read this tab
guitar tuner
Autoscroll
slow
fast
+/-
esc
set tempo
stop
Help us to improve Ultimate-Guitar.com Take our survey!
×
E--------------------------/--------------------------/----------------
B--------------------------/--------------------------/-0--------------
G--------------------------/--------------------------/---1------------
D-----2--------2-------2---/----2--------2-------2----/-----2----------
A---2---2---0---0---2------/---2--2----0---0---2------/-------2--------
E-0--------2-------0-------/-0-------2--------0-------/----------------

E--------------------------/----------------------------------------
B--------------------------/----------------------------------------
G--------------------------/-----------------------------------------
D------2-------2-------2---/-----2------2----------------------------
A---2---2---0---0---2------/---2--2---0--0------------------------------
E-0--------2-------0-------/-0------2-------0-----------------------------


E-----------------------0--
B-----------------------0--
G--------------------------
D----2--------2------------
A--2---2---0---0---2-------
E-0-------2-------0--------
Qué hacemos aquí
 
            E-------------------------
            B-----------------------0-
            G-----------------------1-
            D----2--------2-----------
            A--2---2---0---0---2------
            E-0-------2-------0-------
en medio de esta inmensidad
                     E--------------------------
                     B--------------------------
                     G--------------------------
                     D----2--------2-------2----
                     A--2---2---0---0---2-------
                     E-0-------2-------0--------     
no hay nadie que nos pueda oír
                 E------------------------0---
                     B------------------------0---
                     G----------------------------
                     D----2--------2-------2------
                     A--2---2---0---0---2---------
                     E-0-------2-------0----------
no hay nadie a quien llamar


E---0-4-0--2-5-0----0-4--
B-0-------0--------0-------
G---------------------------
D----------------------------
A----------------------------
E----------------------------
Nos abandonó

E---0-4-0--2-4-0----0-4--
B-0-------0--------0-------
G---------------------------
D----------------------------
A----------------------------
E----------------------------
el resto de la tripulación

        E---0-4-0--2-5-0----0-4--
        B-0-------0--------0-------
        G---------------------------
        D----------------------------
        A----------------------------
        E----------------------------
en este paraíso al sol

            E---0-4-0--2-4-0----0-4--
              B-0-------0--------0-------
              G---------------------------
              D----------------------------
              A----------------------------
              E----------------------------
quedamos tu y yo

E----------------------------
B-------------------------
G---------------------------
D-4-4-6-4------------------------
A-----------6-4----------------
E----------------------------

E---0-4-0--2-5-0----0-4--
B-0-------0--------0-------
G---------------------------
D----------------------------
A----------------------------
E----------------------------
No es un mal final

             E---0-4-0---2-4-0----0-4-----
               B-0-------0-------0----------
               G----------------------------
               D----------------------------
               A----------------------------
               E----------------------------
dos esqueletos y un botín

               E---0-4-0--2-5-0----0-4--
               B-0-------0--------0-------
               G---------------------------
               D----------------------------
               A----------------------------
               E----------------------------
un cofre lleno de metal

          E---0-4-0--2-4-0----0-4--
            B-0-------0--------0----0---
            G---------------------------
            D----------------------------
            A-----------------------------
            E----------------------------
de nada vale aquí

E                    E1
No hay que desesperar
E1           E
hay muchos adelantos hoy
      A            B
nos vendrán a buscar
E            E1
ya lo verás
E1            E
relájate y disfruta
G#m A                 B                  
tómalo como un chiste más

A          E           B
No es nada fácil ser pirata
B          A
del año 2002
A          E         A    B
surcar los mares de coral
            E---0-4-0--2-5-0----0-4--
            B-0-------0--------0-------
            G---------------------------
            D----------------------------
            A----------------------------
            E----------------------------
llevando el timón

E---0-4-0--2-4-0----0-4--
B-0-------0--------0-------
G---------------------------
D----------------------------
A----------------------------
E----------------------------

E-------------------------
B-------------------------
G--------------------------
D----2--------2-------2---
A--2---2---0---0---2----
E-0-------2-------0------
Qué opinas tu

       E-------------------------
       B-------------------------
       G--------------------------
       D----2--------2-------2----
       A--2---2---0---0---2----
       E-0-------2-------0------
el tiempo pasa y todo igual

      E----------------------------0--
        B------------------------------0--
        G--------------------------1----
        D----2--------2-------2--------
        A--2---2---0---0---2----------
        E-0-------2-------0-------------
tan sólo el horizonte azul

      E------------------------0--
      B------------------------0---
      G------------------------1----
      D----2--------2-------------
      A--2---2---0---0---2-------
      E-0-------2-------0---------
añoro navegar

E                  E1
No hay que desesperar
E1                E
echo de menos un buen ron
A            B
nos vendrán a buscar
E            E1
ya lo verás
E1           E
cuando nos acordemos
A            B
bebiendo en el bar


A          E           B
No es nada fácil ser pirata
B          A
del año 2002
A          E          A    B
surcar los mares de coral

A           E           B
No es nada fácil ser pirata
B          A
del año 2002
A          E          A    B
surcar los mares de coral

            E-4-5-4-------------------
            B--------5----------------
            G----------4--------------
            D------------6-4-2--------
            A-------------------------
            E-------------------------
llevando el timón                        Hey!!

E------------------/------2-2-4-5-4/2----/---------4-7-7-5-4-5-4------------
B------------------/-4-5-----------------/-4-5-7------------------5-0-------
G---------4--------/---------------------/----------------------------------
D-4-6-7---7-6-2----/---------------------/----------------------------------
A------------------/---------------------/----------------------------------
E------------------/---------------------/----------------------------------

E-----------------------------
B-4-5-7-7-5-4-5-4-------------
G---------------------6-4/0---
D-----------------------------
A-----------------------------
E-----------------------------

A            E           B
No es nada fácil ser pirata
B          A
del año 2002
A             E      A    B
surcar los mares de coral

            E---0-4-0--2-5-0----0-4-----
            B-0-------0--------0--------
            G---------------------------
            D---------------------------
            A---------------------------
            E---------------------------
llevando el timón

  
E---0-4-0--2-4-0--4------
B-0-------0--------0-------
G---------------------------
D----------------------------
A----------------------------
E----------------------------

E--------------------------------------
B------------10-9-------9-9-------                  TODO ESTO 2 VECES
G-11-9-9----------9-11--------------
D---------9---------------------------
A-------------------------------------
E-------------------------------------

E---2-0-0---5-4-0-2-4-4----/---2-4-0--5-4-0-2-4-4-5/0--------
B-0-------0----------------/-0--------0----------------------
G--------------------------/---------------------------------
D--------------------------/---------------------------------
A--------------------------/---------------------------------
E--------------------------/---------------------------------

E---0-4-0--2-5-0----0-4----/---0-4-0---2--4-2/0---------------
B-0-------0--------0-------/-0--------0-----------------------
G--------------------------/----------------------------------
D--------------------------/----------------------------------
A--------------------------/----------------------------------
E--------------------------/----------------------------------
Suggest correction
Give kudos to tab author, rate the tab!
1 2 3 4 5
comments
print report bad tab
guest
You may want to rate the tab now too:
select rating
Wanna post a correction for this tab? Suggest correction