Oops, an error
Loading. Please wait.

Quedamos En Vigo Tab

32 views 1 this week
no commentswrite comment
1 2 3 4 5
3 more votes to show rating
add to favorites
launch autoscroll
font size
0
reset
how to read this tab
guitar tuner
Autoscroll
slow
fast
+/-
esc
set tempo
stop
Help us to improve Ultimate-Guitar.com Take our survey!
×
E-0-4-2-0-7-0-/---------------/------------------------/-------------------------------
B-0-----------/-4/3-5-3---3-2-/-------4-5-7-5-2-0-4----/-2-0--------2-0--------------
G-1-----------/---------2-----/------4-----------------/------1-1-2------------------
D-2-----------/---------------/-2-4--------------------/------------------------------
A-2-----------/---------------/------------------------/------------------------------
E-0-----------/---------------/------------------------/-------------------0-1/4-0--

E                        A
 Son tantas las veces que he pasado por aquí 
 E                      D   
 por este túnel de Guadarrama   
 Dm                           A     B           A
 dónde apuntaste tu teléfono, no sé que hacer  
      B             E
 te llamaré por la tarde

E                       A
No he dormido nada y ahora quiero descansar
E                      D
duermo casi siempre por el día
Dm                      A      
llevo sólo un libro y dos postales 
A      B            A
con tu nombre atrás
A       B             E
y un pequeño trozo de olvido


      C#m                    A
 Y el sol me deslumbra los ojos
    B               A
 pasamos Orense de día
     E                        A
 quedamos en Vigo esta noche
   B           E
 ayer en Coruña llovía

E--0-4-5-----

E                        A
Encontré mi sombra bajo el puente de la ría
E                        D
el puerto está dormido y huele a mar
Dm                  A
he amarrado el tiempo entre los barcos 
B            A
Ohoooooo
B                 E
me quedaré hasta mañana

      C#m                   A
 Y el sol me deslumbra los ojos
    B               A
 pasamos Orense de día
     E                      A
 quedamos en Vigo esta noche
   B             B
 ayer en Coruña llovía
Wooooo

E-4/5-2/4-0/2-0------------------------------------------------------------------------
B------------------4-2---2-2/4-------------7--8-8-10-7~ -7-5---7-5(5-5-5-5-5)---
G----------------------2---------------4-7-------------------6-------------------------
D--------------------------------2-4-6--------------------------------------------------
A-----------------------------------------------------------------------------------------
E-----------------------------------------------------------------------------------------

E------------7-5----7/8-0------------------------0---------------------------------------
B--------5-7-----8------5-3----2--------7-5------5-4--------------------------------------
G--4--7-----------------5----4---2-----------4---6---6-4-----------------------------------
D--------------------------------------4--------------------7-----------------------------
A-----------------------------------------------------------------------------------------
E-----------------------------------------------------------------------------------------

      C#m                  A
 Y el sol me deslumbra los ojos
    B               A
 pasamos Orense de día
     E                         A
 quedamos en Vigo esta noche
   B                B
 ayer en Coruña llovía
                        
C#m                    A
soñaba que un faro me guiaba
    B                   A
Soñaba que el bosque no ardía
      E                  A
quedamos en Vigo esta noche
B            B
ayer en Coruña llovía
A      B      E
ayer en Coruña llovía


E------------------/-----------4-5-7-/-------------/----------------------0------
B--------8-8-8/10--/------6-8--------/-4/5---------/--------5--------------------
G-----5------------/--4-7------------/-----7----4--/------7---7-3/4--2---1---
D---5--------------/-----------------/-------7-5---/-4-7-------------------------
A-7----------------/-----------------/-------------/------------------------------
E------------------/-----------------/-------------/------------------------------
Suggest correction
Give kudos to tab author, rate the tab!
1 2 3 4 5
comments
print report bad tab
guest
You may want to rate the tab now too:
select rating
Wanna post a correction for this tab? Suggest correction