Oops, an error
Loading. Please wait.

Roto Por Dentro Chords

version 2
version 2

Whole song

by M-Clan
71 views 1 this week
no commentswrite comment
1 2 3 4 5
3 more votes to show rating
add to favorites
launch autoscroll
font size
0
reset
transpose
0
reset
simplify chords
display chords
guitar tuner
×
Best way to learn
"Roto Por Dentro"
Autoscroll
slow
fast
+/-
esc
set tempo
stop
Esta canción va dedicada a R.S.O.(que no la olvidaré)
porque me identifica muchísimo
la letra de esta sencilla pero contundente canción.


C         D       G-G9-G      C       D      G9-G
Aún me cuesta admitir que eras lo mejor de mí
C         D      Em              C
pero el día amanece y nada me parece
                        D                G
la mitad de perfecto como cuando tú estabas aquí.

Estribillo
         Bm                Em
Y es tan corrosivo este dolor
                 Bm            C      G
y esta casa en ruinas que soy yo, soy yo
D                               C
Y es que estoy todo roto por dentro,
D                      Em
estoy todo roto y deshecho
D                      C            G
estoy todo roto y no quiero seguir así.

C         D       G-G9-G      C       D    G-G9-G
Otra trampa en un cajón, zancadilla al corazón
C         D         Em                     C
es que amor recalentado, nunca fue de tu agrado
                             D                G
y yo no me acostumbro a la escarcha de mi habitación.

(Repite estribillo)
Y es tan corrosivo este dolor
y esta casa en ruinas que soy yo, soy yo
Y es que estoy todo roto por dentro
estoy todo roto y deshecho
estoy todo roto y no puedo seguir así.

Solo:

E----------------------------------------
B---------------------------------------
G-----------3--5---7-5----5-7-4---------
D---5--7--------------------------------
A----------------------------------------
E---------------------------------------

E--------------------------------------------
B--------------------------------------------
G-----------3--5---7-5----5-7-4--------12---
D---5--7-------------------------------------
A--------------------------------------------
E--------------------------------------------

E------------------------------
B------9--10---12--14--12--14---
G--12----------------------------
D------------------------------
A------------------------------
E--------------------------------

(Repite estribillo)
Suggest correction
Give kudos to tab author, rate the tab!
1 2 3 4 5
comments
print report bad tab
guest
You may want to rate the tab now too:
select rating
Wanna post a correction for this tab? Suggest correction