Oops, an error
Loading. Please wait.

Setenta Y Nueve Chords

61 views 1 this week
no commentswrite comment
1 2 3 4 5
3 more votes to show rating
add to favorites
launch autoscroll
font size
0
reset
transpose
0
reset
simplify chords
display chords
guitar tuner
×
Best way to learn
"Setenta Y Nueve"
Autoscroll
slow
fast
+/-
esc
set tempo
stop
 
E------0-----0------0------0-----0--3----3--1------1--------1--
B-3-1---1-----3-1----1------3-1------1--------1-----0---------
G----------0-------------0---------------------------------2------
D-------------------------------------------------------------------
A-------------------------------------------------------------------
E--------------------------------------------------------------------

Am F    Am            F
Enterré soldados de plomo
Am           F               G            G7
y mi vieja colección de cromos,
Am    F   Am          F
cajas de música encantada
Am            F        G            G7
y un diente debajo de la almohada. 

Bb      F   Am        C
Suena tan lejano,
Bb      F  Am      G G7 G
fuego de verano,
Bb            F       G      G7
el día en que robé un melón
G7
y tuve una indigestión. 

C  Bb  C     Bb
Sonaba Bob Dylan,
C   F          G        C         G7
un tren se acerca lentamente.
C  Bb   C Bb
Setenta y nueve,
C      Bb
cerré los libros, 
F        G
no pasé septiembre. 
G7    Am
Wouhoo !

Am F Am F Am F G G7 Am F Am F Am F G G7

Am    F   Am        F
Lávate, ponte una camisa,
Am            F       G  G7
es domingo, tienes que ir a misa.
Bb    F        F7 C
Mi madre pensaba
Bb      F    F7  F      Bb F
que así me salvaba. 
Bb      F            G      G7
Yo fumaba en mi habitación,
G      
mirando un póster de Iggy Pop. 

 C Bb  C   Bb
Sonaba Bob Dylan,
C   F          G        C         G7
un tren se acerca lentamente.
C  Bb   C Bb
Setenta y nueve,
C      Bb
cerré los libros, 
F        G            G7
no pasé septiembre. 


C  F  C  F  C   F      G      G7
Uuuh, uuuh un tren se acerca lentamente.
C  F   C F    C            G       
Uuuh, uuhh cerré los libros,
D      G7      G
no pasé septiembre.
G      Am F Am F Am G G7 
Wouhoo !

Final: Am F Am F G7 G Am F Am F


E-1-------   =   G7   = E-3-------
B-0-------            B-3-------            
G-0-------            G-4-------
D-0-------            D-3-------
A-2-------            A-5-------
E-3-------            E-3-------

E-1--------    =  F7
B-1--------
G-2--------
D-1--------
A-3--------
E-1--------
Suggest correction
Give kudos to tab author, rate the tab!
1 2 3 4 5
comments
print report bad tab
guest
You may want to rate the tab now too:
select rating
Wanna post a correction for this tab? Suggest correction