Oops, an error
Loading. Please wait.

Todo Negro Tab

version 1
version 1

Whole song

10 views 1 this week
no commentswrite comment
1 2 3 4 5
3 more votes to show rating
add to favorites
launch autoscroll
font size
0
reset
how to read this tab
guitar tuner
Autoscroll
slow
fast
+/-
esc
set tempo
stop
Help us to improve Ultimate-Guitar.com Take our survey!
×
Esta es la intro que suena en la canción Todo negro, 
solo que la resolución no la he llegado a conseguir 
demasiado bien pues es muy rápida, pero esta bastante bien:

[-----------------------------------------------------
[-----------------------------------------------------
[-----------------------------------------------------
[-2--3----------------3--2--2^3--2---2--3-------------
[-------2--3-3-3-3^2-----------------------2--3--5--6-
[-----------------------------------------------------

 -----------------------------------------------------
 -----------------------------------------------------
 -----------------------------------------------------
 ----------------3--2---2--3----------------3-3-3-3^2-
 -5--3--5--2--3---------------2--3-3-3-3^2------------
 -----------------------------------------------------

 ----------------0------------------------------------]
 ----------------0------------------------------------]
 -3-3-3-3^2--0---2------------------------------------]
 ----------------2------------------------------------]
 ----------------1------------------------------------]
 ----------------0------------------------------------]

Bueno si lograis sacar los acordes enhorabuena, 
porque es una buena canción. Que os vaya bonito!!.
Suggest correction
Give kudos to tab author, rate the tab!
1 2 3 4 5
comments
print report bad tab
guest
You may want to rate the tab now too:
select rating
Wanna post a correction for this tab? Suggest correction